Oops, an error
Loading. Please wait.

Letters To God solo bass

version 1
version 1

Solo

Whole song

Interactive

1,769 views 3 this week
2 commentsread comments
1 2 3 4 5
x 4
add to favorites
×
Save as Personal and add changes to this tab that will be seen only by you. Learn more ›
×
You can save this tab as Personal to edit and correct it or add notes. All changes will be seen only by you. Learn more »
launch autoscroll
font size
0
reset
guitar tuner
edit
Autoscroll
slow
fast
+/-
esc
set tempo
stop
Author
This is the piano solo. Obviously it could be played on guitar,
but play this softly on bass and it sounds gorgeous.
As with all tabs, you'll have to listen to the song to get the
timing perfect. Unless you know if off by heart already!

If you have the luxury of a 21st fret, you could play it
an octave higher.

G:------------------------------------------------------|
D:12--12-10--10-12--12-10-9--------10-10-12-12--14-12-10|
A:--10-----10-----10-------12-10------------------------|
E:------------------------------10~---------------------|

G:------------------------------------------------------|
D:12--12-10--10-12--12-10-9-----------------------------|
A:--10-----10-----10-------12-10--10-10-10--10-12-14-15-|
E:------------------------------10--8-----10------------|

G:------------------------|
D:------------------------|
A:------------------------| X2 
E:0-00-0-00-0-2-333-333-3-|
              ^
        Note: You could play this as a hammer on, but I've found
              just playing it quickly and snapping the note in
	      sounds best. It just keeps the dynamics
	      loud and heavy. We like it loud and heavy;)

	      Play each note in this, hard but firm and mute it
	      strait after you've played it.

G:------------------------|
D:------------------------|
A:------------------------| X2
E:0-00-0-00-0-2-333-333-3-| 

Note: Again, play all these notes hard and firm, but control them and
      let them blend into each other. Keep it loud and heavy,
      just make it loud, heavy and smooth:)

G:--------------------------------------------------------|
D:--------------------------------------------------------|
A:--------------3-33-3-33-3333--------------5-55-5-55-5555| X4
E:0-00-0-00-0000--------------3-33-3-33-3333--------------|

END
G:---|
D:---|
A:7~~|
E:0~~|

Hate mail can be sent in this direction if you really want:
AARONDAVIES at HOTMAIL dot CO dot UK

            
            
Suggest correction
Creating personal tab
Creating personal tab
You can edit any tab online and save it as your Personal.

You can edit, replace or remove any tab part or add personal notes – all changes will be seen only by you.

Personal tabs can be accessed anytime from any device, even offline.
Learn more »
comments
print report bad tab
2 comments total.
0 reply
outoforder123 50 Aug 21, 2006 03:28 AM

great tab

0 reply
bassbomb1193 320 Mar 14, 2013 07:09 AM

gnarly tab

guest
You may want to rate the tab now too:
select rating
Wanna post a correction for this tab? Suggest correction