Oops, an error
Loading. Please wait.

Sorrow Tab

version 1
version 1

Whole song

Interactive

31,560 views 45 this week
17 commentsread comments
1 2 3 4 5
x 34
add to favorites
launch autoscroll
font size
0
reset
how to read this tab
guitar tuner
×
Best way to learn
"Sorrow"
Autoscroll
slow
fast
+/-
esc
set tempo
stop
Author
* = hold

[Intro]
E------------------------|
B------------------------|
G------------------------|
D-------2-0--------2-0---|
A--5-4-0-0-4--5-4-0-0-4--|
E------------------------|

Riff1
E-----------------------------------|
B-----------------------------------|
G-----------------------------------|
D-------2-0--------2-0--------2-0---|
A--5-4-0-0-4--5-4-0-0-4--5-4-0-0-4--|
E-----------------------------------|

[Verse]
E----------------------------------------------------|
B----------------------------------------------------|
G----------------------------------------------------|
D--7-7-7-7-7-7-7-7--6-6-6-6-6-6-6-6--4-4-4-4-4-4-4-4-|
A--x-x-x-x-x-x-x-x--x-x-x-x-x-x-x-x--x-x-x-x-x-x-x-x-|
E--5-5-5-5-5-5-5-5--4-4-4-4-4-4-4-4--2-2-2-2-2-2-2-2-|

E------------------|
B------------------|
G------------------|
D--6-6-6-6-6-6-6-6-|
A--x-x-x-x-x-x-x-x-|
E--4-4-4-4-4-4-4-4-|

[Chorus]
E----------------------------------------------------|
B----------------------------------------------------|
G----------------------------------------------------|
D--7-7-7-7-7-7-7-7--6-6-6-6-6-6-6-6--4-4-4-4-4-4-4-4-|
A--7-7-7-7-7-7-7-7--6-6-6-6-6-6-6-6--4-4-4-4-4-4-4-4-|
E--5-5-5-5-5-5-5-5--4-4-4-4-4-4-4-4--2-2-2-2-2-2-2-2-|

E------------------|
B------------------|
G------------------|
D--6-6-6-6-6-6-6-6-|
A--6-6-6-6-6-6-6-6-|
E--4-4-4-4-4-4-4-4-|

[Interlude]
E----------------|
B----------------|
G--5-4-0-4-5-4-0-|   Listen to the cd to find out how many
D----------------|   times he does this.
A----------------|
E----------------|

If you want any more tabs from me email me.



************************************

| x  Dead note

************************************
Suggest correction
comments
print report bad tab
17 comments total. Showing first comments.
0 reply
BoxCarRacer 60 May 31, 2002 08:00 PM

ok tab and Intro is wrong!

0 reply
Blinked-123-Go 0 Jun 01, 2002 08:00 PM

BoxCarRacer, the intro's perfect
Great tab!!!

+1 reply
GibsonPlayr17 10 Jun 04, 2002 08:00 PM

the interlude is wrong. it goes :
------------
-3-2--2-3-2-
-----2------
------------
------------
------------
Then every other time add a
-----
-----
--2--
-----
-----
-----
before you play it the next time.

guest
You may want to rate the tab now too:
select rating
Wanna post a correction for this tab? Suggest correction