Oops, an error
Loading. Please wait.

Northern Flow Live solo tab

25 views 3 this week
no commentswrite comment
1 2 3 4 5
3 more votes to show rating
add to favorites
×
Save as Personal and add changes to this tab that will be seen only by you. Learn more ›
×
You can save this tab as Personal to edit and correct it or add notes. All changes will be seen only by you. Learn more »
launch autoscroll
font size
0
reset
how to read this tab
guitar tuner
edit
Autoscroll
slow
fast
+/-
esc
set tempo
stop
Author
Difficulty
-------------------------------------------------------------------------------
                         Northern Flow - Boxerin Club
                         Live at RecordinGrandma Solo
-------------------------------------------------------------------------------

Note: The following is the guitar solo played live at RecordinGrandma by 
      Boxerin Club. The solo is played instead of the synth solo contained 
      in the original song.


   E
e|---------------------------------------------------------------------------|
B|-8-8/9--------9------------------------------------------------------------|
G|-8-8/9---9h11---9---------------9------------------------------------------|
D|------------------11-9--------9---11-9----------------9-----------11-14----|
A|-------------------------9h11----------11-11-9-9-9h11-----9/11-14----------|
E|---------------------------------------------------------------------------|

e|-------------------------12------------------------------------------------|
B|----------12-------12-12----14-12------------------------------------------|
G|-11-11/13----11/13----------------13p11------------------------------------|
D|----------------------------------------14-11-14-14\11-11-11-9-11-14\11\9--|
A|---------------------------------------------------------------------------|
E|---------------------------------------------------------------------------|
                                               
e|---------------------------------------------------------------------------|
B|-----------------------------------------------9---9---9-7-7/9-9-----------|
G|-----9----------------9----------------7/8-7/8---8---8---------------------|
D|-9-9---11p9-9-------9---11-9-------11b---------------------------9-9-------|
A|--------------11-11----------11/12-----------------------------------------|
E|---------------------------------------------------------------------------|

e|---------------------------------------------------------------------------|
B|-9h11/12-12----12-12-9--------------------12-12----------------12----------|
G|-----------11----------9-11----9-11-11/13-------13-13-11-11/13----9/11-11--|
D|----------------------------11---------------------------------------------|
A|---------------------------------------------------------------------------|
E|---------------------------------------------------------------------------|

e|---------------------------------------------------------------------------|
B|---------------------------------------------------------------------------|
G|-9---------/9--------------------------------------------------------------|
D|---11-11-------------------------------------------------------------------|
A|---------------------------------------------------------------------------|
E|---------------------------------------------------------------------------|


************************************

| /   slide up
| \   slide down
| h   hammer-on
| p   pull-off
| ~   vibrato
| +   harmonic
| x   Mute note
| b   Bend
| pb  Pre-bend
| br  Bend release
| pbr Pre-bend release
| brb Bend release bend

************************************

            
            
Suggest correction
Creating personal tab
Creating personal tab
You can edit any tab online and save it as your Personal.

You can edit, replace or remove any tab part or add personal notes – all changes will be seen only by you.

Personal tabs can be accessed anytime from any device, even offline.
Learn more »
Give kudos to tab author, rate the tab!
1 2 3 4 5
comments
print report bad tab
guest
You may want to rate the tab now too:
select rating
Wanna post a correction for this tab? Suggest correction