Oops, an error
Loading. Please wait.

Little Numbers Bass Tab

by Boy
6,064 views 6 this week
1 commentread comment
1 2 3 4 5
excellent!
x 3
add to favorites
launch autoscroll
font size
0
reset
guitar tuner
Autoscroll
slow
fast
+/-
esc
set tempo
stop
Help us to improve Ultimate-Guitar.com Take our survey!
×
Contributor
BOY -  Little Numbers

tabbed by: Shanice

Vers:
Waiting for your call,for the moon...
G|--------------|--------------|--------------|----8-----6---|
D|--------------|--------------|--------------|--------------|
A|--------------|--------------|--6-----6-----|-6-----4------|
E|--6-----6-----|--4-----4-----|--------------|--------------|


G|--------------|--------------|--------------|------------6-|
D|--------------|--------------|--------------|--------------|
A|--------------|--------------|--6-----6-----|-----6---4----|
E|--6-----6-----|--4-----4-----|--------------|--------------|



G|--------------|--------------|--------------|----8-----6---|
D|--------------|--------------|--------------|--------------|
A|--------------|--------------|--6-----6-----|-6-----4------|
E|--6-----6-----|--4-----4-----|--------------|--------------|


G|--------------|--------------|--------------|--------------|
D|--------------|--------------|--------------|--------------|
A|--9-----9-----|--9----6---9--|--11----11----|-11---8---11--|
E|--------------|--------------|--------------|--------------|


Intro Chrorus: seven little numbers...

Chorus:

Woo-oh, oh-oh, all the pretty things that we could be...
G|--------------|--------------|--------------|--------------|
D|--------------|--------------|--------------|--------------|  3x
A|--------------|--------------|--4----4---4--|--------------|
E|--6----6---6--|--4----4---4--|--------------|--2----2---2--|


G|--------------|--------------|--------------|--------------|
D|--------------|------------3-|-4---4---4---4|-----4---4---4|
A|-6---6---6---6|-6---6---6----|--------------|--------------|
E|--------------|--------------|--------------|--------------|


piaon solo

Vers:

I watch the sky change to a darker blue...

G|--------------|--------------|--------------|----8-----6---|
D|--------------|--------------|--------------|--------------|
A|--------------|--------------|--6-----6-----|-6-----4------|
E|--6-----6-----|--4-----4-----|--------------|--------------|


G|--------------|--------------|--------------|------------6-|
D|--------------|--------------|--------------|--------------|
A|--------------|--------------|--6-----6-----|-----6---4----|
E|--6-----6-----|--4-----4-----|--------------|--------------|



G|--------------|--------------|--------------|----8-----6---|
D|--------------|--------------|--------------|--------------|
A|--------------|--------------|--6-----6-----|-6-----4------|
E|--6-----6-----|--4-----4-----|--------------|--------------|


G|--------------|--------------|--------------|--------------|
D|--------------|--------------|--------------|--------------|
A|--9-----9-----|--9----6---9--|--11----11----|-11---8---11--|
E|--------------|--------------|--------------|--------------|

Intro Chorus 2x

Chorus:

Woo-oh, oh-oh, all the pretty things that we could be...
G|--------------|--------------|--------------|--------------|
D|--------------|--------------|--------------|--------------|  3x
A|--------------|--------------|--4----4---4--|--------------|
E|--6----6---6--|--4----4---4--|--------------|--2----2---2--|


G|--------------|--------------|--------------|--------------|
D|--------------|------------3-|-4---4---4---4|-----4---4---4|
A|-6---6---6---6|-6---6---6----|--------------|--------------|
E|--------------|--------------|--------------|--------------|


Bridge: 

G|--------------|--------10----|------11---10-|--------------|
D|------8---10--|---11---------|--------------|------11---10-|
A|--------------|--------------|---9----------|--------------|
E|-6------------|--------------|--------------|--9-----------|



G|--------------|--------10----|------11---10-|----13--------|
D|------8---10--|---11---------|--------------|------------8-|  
A|--------------|--------------|--9-----------|-11----11-----|
E|--6-----------|--------------|--------------|--------------|


Chorus:

Woo-oh, oh-oh, all the pretty things that we could be...
G|--------------|--------------|--------------|--------------|
D|--------------|--------------|--------------|--------------|  3x
A|--------------|--------------|--4----4---4--|--------------|
E|--6----6---6--|--4----4---4--|--------------|--2----2---2--|


G|--------------|--------------|--------------|--------------|
D|--------------|------------3-|-4---4---4---4|-----4---4---4|
A|-6---6---6---6|-6---6---6----|--------------|--------------|
E|--------------|--------------|--------------|--------------|

chorus:

Woo-oh, oh-oh, all the pretty things that we could be...
G|--------------|--------------|--------------|--------------|
D|--------------|--------------|--------------|--------------|  3x
A|--------------|--------------|--4----4---4--|--------------|
E|--6----6---6--|--4----4---4--|--------------|--2----2---2--|

These numbers could be lucky....
G|--------------|--------------|--------------|--------------|
D|--------------|------------3-|-4---4---4---4|-4---4---4---4|
A|-6---6---6---6|-6---6---6----|--------------|--------------|
E|--------------|--------------|--------------|--------------|

These numbers could be lucky for you.
G|--------------|--------------|--------------|--------------|
D|--------------|------------3-|-4---4---4---4|-4---4---4----|
A|-6---6---6---6|-6---6---6----|--------------|--------------|
E|--------------|--------------|--------------|--------------|

Ich hab versucht das Lied so gut wie möglich rauszuhören,
wenn ihr aber noch Fehler seht und Verbesserungsvorschläge
habt schreibt mir eine e-mail:
shanice-bennett@web.de
viel spaß mit dem tab! ;)
comments
We did not receive enough feedback on this tab! Please rate:
print report bad tab
1 2 3 4 5
1 comment total.
0 reply
Kars10 19 wrote on May 5 2012, 03:24 pm

Ich finds echt top! THX! :-)

I want to post or [tab]
guest
You may want to rate the tab now too:
select rating
Please do not post tabs as comments. Select "correction" instead!