Oops, an error
Loading. Please wait.

Same Old Song Tab

by Boy
1,661 views 3 this week
no commentswrite comment
1 2 3 4 5
please rate
add to favorites
launch autoscroll
font size
0
reset
how to read this tab
guitar tuner
Autoscroll
slow
fast
+/-
esc
set tempo
stop
Help us to improve Ultimate-Guitar.com Take our survey!
×
Contributor
Band Name: Boy
Song Name: Same Old Song
Tabbed by: ScHrOeDeR

Standard Tuning: EADGBe

Intro

e|----------------------------------------|
B|----------------------------------------|
G|-7-7-5-7-5----7-7-5-5-5-----------------|
D|-7-7-5-7-5-x3-7-7-5-5-5-----------------|
A|-5-5-5-5-5----5-5-3-3-3-----------------|
E|----------------------------------------|

Verse 1

e|----------------------------------------|
B|---------------------------------6-5----|
G|-7-7-7-7-----------7-7-5-7-5-7-7-5-5----|
D|-7-7-7-7--5-5-5-5--7-7-5-7-5-7-7-5-5----|
A|-5-5-5-5--5-5-5-5--5-5-5-5-5-5-5-3-3----|
E|----------3-3-3-3-----------------------|

Prechorus: Guitar 1

e|----------------------------------------|
B|----------------------------------------|
G|-7-7-5-7--5-5---------------------------|
D|-7-7-5-7--5-5--5-5-5--------------------|x4
A|-5-5-5-5--3-3--5-5-5--------------------|
E|---------------3-3-3--------------------|

Guitar 2

e|-----------------------------------------|
B|-777-7-8-7--6-5--3-3-3-------------------|
G|-777-7-7-7--5-5--4-4-4-------------------|
D|-777-7-7-7--5-5--5-5-5-------------------|x4
A|-555-5-5-5--3-3--5-5-5-------------------|
E|-----------------3-3-3-------------------|


e|-----------------------------------------|  
B|-----------------------------------------| 
G|-7---------------------------------------|                                
D|-7-x8--3-----5---------------------------|x2
A|-5-----3-x8--5-x8------------------------|
E|-------1-----3---------------------------|

Repeat intro

Verse 2: same as verse 1

Prechorus

Chorus 

Interlude: short keyboard solo then

e|----------------------------------------|
B|-----------------------3----------------|
G|--7-7---5-----5-------4-----------------|
D|-----7---5-----5------------------------|x8
A|-------5--5--3--3---5-------------------|
E|-------------------3--------------------|

After the fourth time guitar 2 comes in with

e|--------------------------------------|
B|--7-7-5-7--5-5------------------------|
G|--7-7-5-7--5-5-4-5-4------------------|
D|--7-7-5-7--5-5-5-5-5------------------|x4
A|--5-5-3-5--3-3-5-5-5------------------|
E|---------------3-3-3------------------|

Chorus x2

Around the end of the first chorus guitar 2 comes in with the outro:

e|------------------------------15b16-----17b18---17b18r17----15------|
B|-13b14-14-14-14---------13-15----------------------------18---------|
G|---------------------14---------------------------------------------|
D|--------------------------------------------------------------------|
A|--------------------------------------------------------------------|
E|--------------------------------------------------------------------|

e|--15b1/2r15-----------------------------------------------------------|
B|------------17b18--15-----13------------------------------------------|
G|----------------------------14-12-14-12-12-10-12b14-12b14r12-10-------|
D|----------------------------------------------------------------12----|
A|----------------------------------------------------------------------|
E|----------------------------------------------------------------------|

e|--------------------------------------------------------------------|
B|--10--------10--------10-------------------------14b15--------------|
G|--12b14-b14-12b14-b14-12b14-b14-b14-b14r12-10-----------------------|
D|----------------------------------------------12--------------------|
A|--------------------------------------------------------------------|
E|--------------------------------------------------------------------|

e|-------------------------------------|
B|-------------------------------------|
G|--12h14p12----12-14------------------|repeats until fadeout
D|-----------15-------12---------------|
A|-------------------------------------|
E|-------------------------------------|

-Enjoy-
comments
We did not receive enough feedback on this tab! Please rate:
print report bad tab
1 2 3 4 5
I want to post or [tab]
guest
You may want to rate the tab now too:
select rating
Please do not post tabs as comments. Select "correction" instead!