Oops, an error
Loading. Please wait.

This Is The Beginning Tab

by Boy
2,726 views 9 this week
no commentswrite comment
1 2 3 4 5
please rate
add to favorites
launch autoscroll
font size
0
reset
how to read this tab
guitar tuner
Tab Pro tools
  • play this tab
  • loop segment
  • change instrument
  • show fretboard
  • metronome
×
Best way to learn
"This Is The Beginning"
Autoscroll
slow
fast
+/-
esc
set tempo
stop
Contributor
Difficulty
intermediate
-------------------------------------------------------------------------------
                             THIS IS THE BEGINNING - BOY
-------------------------------------------------------------------------------
Notes: beautiful song - beautiful women

Tuning: Standard


------------------------
 Intro / Verse / Outro:
 (all notes P.M.)
------------------------

  1.          2.          3.          4.          1.          2.          3.          4.        
e|-----------------------------------------------|-----------------------------------------------|
B|-----------------------------------------------|-----------------------------------------------|
G|-----------------------------------------------|-----------------------------------------------|
D|12-12-10----------10----12----X-12------X-10---|12-12-10----------10----14----X-12-----12-12-10|
A|------------12---------------------------------|------------12---------------------------------|
E|-----------------------------------------------|-----------------------------------------------|

---------
 Chorus:
---------

  1.          2.          3.          4.          1.          2.          3.          4.        
e|-----------------------------------------------|-----------------------------------------------|
B|-----------------------------------------------|-----------------------------------------------|
G|------15----------15----------15----------15---|------14----------14----------12----------12---|
D|---15----15----15----15----15----15----15----15|---15----15----15----15----10----10----10----10|
A|------------13----------------------13---------|------------12----------------------10---------|
E|15----------------------15---------------------|13-----------------------8---------------------|

  1.          2.          3.          4.          1.          2.          3.          4.        
e|-----------------------------------------------|-----------------------------------------------|
B|-----------------------------------------------|-----------------------------------------------|
G|------15----------15----------15----------15---|------12----------12----------12----------12---|
D|---15----15----15----15----15----15----15----15|---10----10----10----10----10----10----10----10|
A|------------13----------------------13---------|-8----------12----------10---------------------|
E|15----------------------15---------------------|-------------------------------------8---------|

  1.          2.          3.          4.          1.          2.          3.          4.        
e|-----------------------------------------------|-----------------------------------------------|
B|-----------------------------------------------|-----------------------------------------------|
G|------15----------15----------15----------15---|------14----------14----------12----------12---|
D|---15----15----15----15----15----15----15----15|---15----15----15----15----10----10----10----10|
A|------------13----------------------13---------|------------12----------------------10---------|
E|15----------------------15---------------------|13-----------------------8---------------------|

  1.          2.          3.          4.          1.          2.          3.          4.        
e|-----------------------------------------------|-----------------------------------------------|
B|-----------------------------------------------|-----------------------------------------------|
G|------15----------15----------14----------14---|------12----------12---------------------------|
D|---15----15----15----15----15----15----15----15|---10----10----10----10------------------------|
A|------------13----------------------12---------|------------10---------------------------------|
E|15----------------------13---------------------|-8----------------------8----------------------|



----------
 Verse 1:
----------

||:  Bb , Dm  |  C  :|| (x3)

open the boxes
unpack what you own
hang up some posters
and make this a home

walk down the stairs and
open the door
look at the things you've
never seen before


---------
 Chorus:
---------

Bb                    F
this is the beginning 
     C                Bb
of anything you want
                      F     C     Bb
this is the beginning 
Bb                    F
this is the beginning
     C                Bb
of anything you want
F                     C
this is the beginning


------------
 Interlude:
------------

||:  Bb  |  C  :|| (x2)


----------
 Verse 2:
----------

||:  Bb , Dm  |  C  :|| (x3)

get on the busses
learn numbers and names
your eyes are the camera
your heart is the frame 

hum a new song as you
walk down the streets 
soon they'll be full with
friends and memories


---------
 Chorus:
---------

Bb                    F
this is the beginning 
     C                Bb
of anything you want
                      F     C     Bb
this is the beginning 
                      F
this is the beginning
     C                Bb
of anything you want
F                     C
this is the beginning

 
---------------------
 Awesome Outro (!!):
---------------------

Bb                    C
this is the beginning
                      Dm
of anything you want
                      F     C     Bb
this is the beginning
                      C
this is the beginning
                      Dm
of anything you want
                      F     C     Bb
this is the beginning

                      C
this is the beginning
                      Dm
of anything you want
                      F     C     Bb
this is the beginning
                      C
this is the beginning
                      Dm
of anything you want
                      F     C
this is the beginning


||:  Bb  |  C  |  Dm  |  F , C :||  (x2)
comments
We did not receive enough feedback on this tab! Please rate:
print report bad tab
1 2 3 4 5
I want to post or [tab]
guest
You may want to rate the tab now too:
select rating
Please do not post tabs as comments. Select "correction" instead!