Oops, an error
Loading. Please wait.

Old Town Blues Tab

31 views 3 this week
1 commentread comment
1 2 3 4 5
2 more votes to show rating
add to favorites
launch autoscroll
font size
0
reset
how to read this tab
guitar tuner
Autoscroll
slow
fast
+/-
esc
set tempo
stop
Help us to improve Ultimate-Guitar.com Take our survey!
×
Author
Difficulty
intermediate
[Intro]

PM---------------------------------|---------------------------------||
e|---------------------------------|---------------------------------||
B|---------------------------------|---------------------------------||
G|---------------------------------|---------------------------------||
D|---------------------5-----------|---------------------5-----------|| x2
A|----------3---5---7-----7---5----|----------3---5---7-----7---5----||
E|---3---5-------------------------|---3---5-------------------------||

PM---------------------------------|---------------------------------||
e|---------------------------------|---------------------------------||
B|---------------------------------|---------------------------------||
G|---------------------------------|---------------------------------||
D|---------------------5-----------|---------------------5-----------|| x2
A|------0---2---5---7-----7---5----|------0---2---5---7-----7---5----||
E|---0-----------------------------|---0-----------------------------||


[Verse]

PM---------------------------------|---------------------------------||
e|---------------------------------|---------------------------------||
B|---------------------------------|---------------------------------||
G|---------------------------------|---------------------------------||
D|---------------------5-----------|---------------------5-----------|| x2
A|----------3---5---7-----7---5----|----------3---5---7-----7---5----||
E|---3---5-------------------------|---3---5-------------------------||

PM---------------------------------|---------------------------------||
e|---------------------------------|---------------------------------||
B|---------------------------------|---------------------------------||
G|---------------------------------|---------------------------------||
D|---------------------5-----------|---------------------5-----------|| x2
A|------0---2---5---7-----7---5----|------0---2---5---7-----7---5----||
E|---0-----------------------------|---0-----------------------------||

PM---------------------------------|---------------------------------||
e|---------------------------------|---------------------------------||
B|---------------------------------|---------------------------------||
G|---------------------------------|---------------------------------||
D|---------------------5-----------|---------------------5-----------|| x2
A|----------3---5---7-----7---5----|----------3---5---7-----7---5----||
E|---3---5-------------------------|---3---5-------------------------||

PM---------------------------------|---------------------------------||
e|---------------------------------|---------------------------------||
B|---------------------------------|---------------------------------||
G|---------------------------------|---------------------------------||
D|---------------------5-----------|---------------------5-----------|| x2
A|------0---2---5---7-----7---5----|------0---2---5---7-----7---5----||
E|---0-----------------------------|---0-----------------------------||


[Chorus]

The strum pattern here is: Down, Down, Up, Down, Up
e|----5----5------5--5--5---------|----5----5--------5--5--5-----------------||
B|----7----7------7--7--7---------|----7----7--------7--7--7-----------------||
G|----7----7------7--7--7---------|----7----7--------7--7--7-----------------||
D|----7----7------7--7--7---------|----7----7--------7--7--7-----------------|| x2
A|----5----5------5--5--5---------|----5----5--------5--5--5-----------------||
E|----x----x------x--x--x---------|----x----x--------x--x--x-----------------||

e|---8-----8------8--8--8---------|----8----8--------8--8--8------|----8--8-------8--8--8---|--8-----------||
B|---8-----8------8--8--8---------|----8----8--------8--8--8------|----8--8-------8--8--8---|--8-----------||
G|---9-----9------9--9--9---------|----9----9--------9--9--9------|----9--9-------9--9--9---|--9-----------||
D|---10----10-----10-10-10--------|----10---10-------10-10-10-----|----10-10------10-10-10--|--10----------||
A|---10----10-----10-10-10--------|----10---10-------10-10-10-----|----10-10------10-10-10--|--10----------||
E|---8-----8------8--8--8---------|----8----8--------8--8--8------|----8--8-------8--8--8---|--8-----------||
Remember to keep your tempo. If you play this part too fast,
it will be impossible to pick up the main riff again.


[Verse]

PM---------------------------------|---------------------------------||
e|---------------------------------|---------------------------------||
B|---------------------------------|---------------------------------||
G|---------------------------------|---------------------------------||
D|---------------------5-----------|---------------------5-----------|| x2
A|----------3---5---7-----7---5----|----------3---5---7-----7---5----||
E|---3---5-------------------------|---3---5-------------------------||

PM---------------------------------|---------------------------------||
e|---------------------------------|---------------------------------||
B|---------------------------------|---------------------------------||
G|---------------------------------|---------------------------------||
D|---------------------5-----------|---------------------5-----------|| x2
A|------0---2---5---7-----7---5----|------0---2---5---7-----7---5----||
E|---0-----------------------------|---0-----------------------------||

PM---------------------------------|---------------------------------||
e|---------------------------------|---------------------------------||
B|---------------------------------|---------------------------------||
G|---------------------------------|---------------------------------||
D|---------------------5-----------|---------------------5-----------|| x2
A|----------3---5---7-----7---5----|----------3---5---7-----7---5----||
E|---3---5-------------------------|---3---5-------------------------||

PM---------------------------------|---------------------------------||
e|---------------------------------|---------------------------------||
B|---------------------------------|---------------------------------||
G|---------------------------------|---------------------------------||
D|---------------------5-----------|---------------------5-----------|| x2
A|------0---2---5---7-----7---5----|------0---2---5---7-----7---5----||
E|---0-----------------------------|---0-----------------------------||


[Chorus]

e|----0----0------0--0--0---------|----0----0--------0--0--0-----------------||
B|----3----3------3--3--3---------|----3----3--------3--3--3-----------------||
G|----0----0------0--0--0---------|----0----0--------0--0--0-----------------||
D|----4----4------4--4--4---------|----4----4--------4--4--4-----------------|| x2
A|----5----5------5--5--5---------|----5----5--------5--5--5-----------------||
E|----x----x------x--x--x---------|----x----x--------x--x--x-----------------||

e|---0-----0------0--0--0---------|----0----0--------0--0--0-----------------||
B|---1-----1------1--1--1---------|----1----1--------1--1--1-----------------||
G|---0-----0------0--0--0---------|----0----0--------0--0--0-----------------||
D|---2-----2------2--2--2---------|----2----2--------2--2--2-----------------|| x2
A|---3-----3------3--3--3---------|----3----3--------3--3--3-----------------||
E|---0-----0------0--0--0---------|----0----0--------0--0--0-----------------||

e|----0----0------0--0--0---------|----0----0--------0--0--0-----------------||
B|----3----3------3--3--3---------|----3----3--------3--3--3-----------------||
G|----0----0------0--0--0---------|----0----0--------0--0--0-----------------||
D|----4----4------4--4--4---------|----4----4--------4--4--4-----------------|| x2
A|----5----5------5--5--5---------|----5----5--------5--5--5-----------------||
E|----x----x------x--x--x---------|----x----x--------x--x--x-----------------||

e|---0-----0------0--0--0---------|----0----0--------0--0--0-----------------||
B|---1-----1------1--1--1---------|----1----1--------1--1--1-----------------||
G|---0-----0------0--0--0---------|----0----0--------0--0--0-----------------||
D|---2-----2------2--2--2---------|----2----2--------2--2--2-----------------|| x2
A|---3-----3------3--3--3---------|----3----3--------3--3--3-----------------||
E|---0-----0------0--0--0---------|----0----0--------0--0--0-----------------||



[Verse]

PM---------------------------------|---------------------------------||
e|---------------------------------|---------------------------------||
B|---------------------------------|---------------------------------||
G|---------------------------------|---------------------------------||
D|---------------------5-----------|---------------------5-----------|| x2
A|----------3---5---7-----7---5----|----------3---5---7-----7---5----||
E|---3---5-------------------------|---3---5-------------------------||

PM---------------------------------|---------------------------------||
e|---------------------------------|---------------------------------||
B|---------------------------------|---------------------------------||
G|---------------------------------|---------------------------------||
D|---------------------5-----------|---------------------5-----------|| x2
A|------0---2---5---7-----7---5----|------0---2---5---7-----7---5----||
E|---0-----------------------------|---0-----------------------------||

PM---------------------------------|---------------------------------||
e|---------------------------------|---------------------------------||
B|---------------------------------|---------------------------------||
G|---------------------------------|---------------------------------||
D|---------------------5-----------|---------------------5-----------|| x2
A|----------3---5---7-----7---5----|----------3---5---7-----7---5----||
E|---3---5-------------------------|---3---5-------------------------||

PM---------------------------------|---------------------------------||
e|---------------------------------|---------------------------------||
B|---------------------------------|---------------------------------||
G|---------------------------------|---------------------------------||
D|---------------------5-----------|---------------------5-----------|| x2
A|------0---2---5---7-----7---5----|------0---2---5---7-----7---5----||
E|---0-----------------------------|---0-----------------------------||


[Chorus]

e|----0----0------0--0--0---------|----0----0--------0--0--0-----------------||
B|----3----3------3--3--3---------|----3----3--------3--3--3-----------------||
G|----0----0------0--0--0---------|----0----0--------0--0--0-----------------||
D|----4----4------4--4--4---------|----4----4--------4--4--4-----------------|| x2
A|----5----5------5--5--5---------|----5----5--------5--5--5-----------------||
E|----x----x------x--x--x---------|----x----x--------x--x--x-----------------||

e|---0-----0------0--0--0---------|----0----0--------0--0--0------|---0----0-----0---0---0---|----0--------||
B|---1-----1------1--1--1---------|----1----1--------1--1--1------|---1----1-----1---1---1---|----1--------||
G|---0-----0------0--0--0---------|----0----0--------0--0--0------|---0----0-----0---0---0---|----0--------||
D|---2-----2------2--2--2---------|----2----2--------2--2--2------|---2----2-----2---2---2---|----2--------||
A|---3-----3------3--3--3---------|----3----3--------3--3--3------|---3----3-----3---3---3---|----3--------||
E|---0-----0------0--0--0---------|----0----0--------0--0--0------|---0----0-----0---0---0---|----0--------||


[Outro]

PM---------------------------------|---------------------------------||
e|---------------------------------|---------------------------------||
B|---------------------------------|---------------------------------||
G|---------------------------------|---------------------------------||
D|---------------------5-----------|---------------------5-----------|| x2
A|----------3---5---7-----7---5----|----------3---5---7-----7---5----||
E|---3---5-------------------------|---3---5-------------------------||

PM---------------------------------|---------------------------------||
e|---------------------------------|---------------------------------||
B|---------------------------------|---------------------------------||
G|---------------------------------|---------------------------------||
D|---------------------5-----------|---------------------5-----------|| x2
A|------0---2---5---7-----7---5----|------0---2---5---7-----7---5----||
E|---0-----------------------------|---0-----------------------------||

PM---------------------------------|---------------------------------||
e|---------------------------------|---------------------------------||
B|---------------------------------|---------------------------------||
G|---------------------------------|---------------------------------||
D|---------------------5-----------|---------------------5-----------|| x2
A|----------3---5---7-----7---5----|----------3---5---7-----7---5----||
E|---3---5-------------------------|---3---5-------------------------||

PM---------------------------------|---------------------------------||
e|---------------------------------|---------------------------------||
B|---------------------------------|---------------------------------||
G|---------------------------------|---------------------------------||
D|---------------------5-----------|---------------------5-----------|| x2
A|------0---2---5---7-----7---5----|------0---2---5---7-----7---5----||
E|---0-----------------------------|---0-----------------------------||

e|---------------------------------|---------------------------------||
B|---8p7----------8p7--------------|----8p7-----------8p7------------||
G|---------7------------7----------|----------7-------------7--------||
D|---------------------------------|---------------------------------|| x2
A|---------------------------------|---------------------------------||
E|---------------------------------|---------------------------------||

e|---------------------------------|---------------------------------|---x--------||
B|---8p7----------8p7--------------|----8p7-----------8p7------------|---x--------||
G|---------7------------7----------|----------7-------------7--------|---x--------||
D|---------------------------------|---------------------------------|---x--------||
A|---------------------------------|---------------------------------|---x--------||
E|---------------------------------|---------------------------------|---x--------||
If those last muted notes seem anti-climactic, they're meant to be accompanied by the other band mates
playing C. If you aren't playing among other guitar/mandolin/banjo players, feel free to swap that
for this:

e|---8----||
B|---8----||
G|---9----||
D|---10---||
A|---10---||
E|---8----||


Suggest correction
Give kudos to tab author, rate the tab!
1 2 3 4 5
comments
print report bad tab
1 comment total.
0 reply
gbpacas 10 Oct 16, 2016 04:07 PM

Love this song and the tabs are right on target!! Thanks!

guest
You may want to rate the tab now too:
select rating
Wanna post a correction for this tab? Suggest correction