Oops, an error
Loading. Please wait.

Southern Sun Acoustic tab

version 2
version 2

Whole song

  • This tab was created from the original song to be ... Show more
343 views 1 this week
no commentswrite comment
1 2 3 4 5
3 more votes to show rating
add to favorites
×
Save as Personal and add changes to this tab that will be seen only by you. Learn more ›
×
You can save this tab as Personal to edit and correct it or add notes. All changes will be seen only by you. Learn more »
launch autoscroll
font size
0
reset
how to read this tab
guitar tuner
edit
Autoscroll
slow
fast
+/-
esc
set tempo
stop
Author
Difficulty
About this tab version
This tab was created from the original song to be easy to understand and pick-up. Was this info helpful? Yes No
[Intro]
  A                         A  F                       F
e|------------0-------------0-|----------1-------------1-|
B|--------2------2----------2-|-------1-----1----------1-|
G|----2-------------2-------2-|----2-----------2-------2-| x2
D|-2-------------------2----2-|-3-----------------3----3-|
A|----------------------------|--------------------------|
E|----------------------------|--------------------------|

[Verse 1]
   F       F         F         F      Am   F        F         F         F      Am  
e|-1--1--x--1-1-1--x--1-1-1--x--1-1-1--0--|-1--1--x--1-1-1--x--1-1-1--x--1-1-1--0--|
B|-1--1--x--1-1-1--x--1-1-1--x--1-1-1--1--|-1--1--x--1-1-1--x--1-1-1--x--1-1-1--1--|
G|-2--2--x--2-2-2--x--2-2-2--x--2-2-2--2--|-2--2--x--2-2-2--x--2-2-2--x--2-2-2--2--|
D|-3--3--x--3-3-3--x--3-3-3--x--3-3-3--2--|-3--3--x--3-3-3--x--3-3-3--x--3-3-3--2--|
A|-------x---------x---------x------------|-------x---------x---------x------------|
E|-------x---------x---------x------------|-------x---------x---------x------------|
 
   G        G         G         G      Am  G        G         G   
e|-3--3--x--3-3-3--x--3-3-3--x--3-3-3--0---3--3--x--3-3-3--x--3-3-3--x--3-3-3--0-|
B|-3--3--x--3-3-3--x--3-3-3--x--3-3-3--1---3--3--x--3-3-3--x--3-3-3--x--3-3-3--1-|
G|-4--4--x--4-4-4--x--3-3-3--x--4-4-4--2---4--4--x--4-4-4--x--4-4-4--x--4-4-4--2-| x2
D|-5--5--x--5-5-5--x--3-3-3--x--5-5-5--2---5--5--x--5-5-5--x--5-5-5--x--5-5-5--2-|
A|-------x---------x---------x-------------------x---------x---------x---------x-|
E|-------x---------x---------x-------------------x---------x---------x---------x-|

[Chorus 1] - verse strumming continues
e|-----------------------------------------7b--3--|
B|--10p8h10---------------10p8h10--------8--------|
G|-----------9--7--5/2-------------9-7h9----------| x2
D|------------------------------------------------|
A|------------------------------------------------|
E|------------------------------------------------|

[Verse 2]
   F       F         F         F      Am   F        F         F         F      Am  
e|-1--1--x--1-1-1--x--1-1-1--x--1-1-1--0--|-1--1--x--1-1-1--x--1-1-1--x--1-1-1--0--|
B|-1--1--x--1-1-1--x--1-1-1--x--1-1-1--1--|-1--1--x--1-1-1--x--1-1-1--x--1-1-1--1--|
G|-2--2--x--2-2-2--x--2-2-2--x--2-2-2--2--|-2--2--x--2-2-2--x--2-2-2--x--2-2-2--2--|
D|-3--3--x--3-3-3--x--3-3-3--x--3-3-3--2--|-3--3--x--3-3-3--x--3-3-3--x--3-3-3--2--|
A|-------x---------x---------x------------|-------x---------x---------x------------|
E|-------x---------x---------x------------|-------x---------x---------x------------|
 
   G        G         G         G      Am  G        G         G   
e|-3--3--x--3-3-3--x--3-3-3--x--3-3-3--0---3--3--x--3-3-3--x--3-3-3--x--3-3-3--0-|
B|-3--3--x--3-3-3--x--3-3-3--x--3-3-3--1---3--3--x--3-3-3--x--3-3-3--x--3-3-3--1-|
G|-4--4--x--4-4-4--x--3-3-3--x--4-4-4--2---4--4--x--4-4-4--x--4-4-4--x--4-4-4--2-| x2
D|-5--5--x--5-5-5--x--3-3-3--x--5-5-5--2---5--5--x--5-5-5--x--5-5-5--x--5-5-5--2-|
A|-------x---------x---------x-------------------x---------x---------x---------x-|
E|-------x---------x---------x-------------------x---------x---------x---------x-|

[Chorus 2] - verse strumming continues
e|-----------------------------------------7b--3--|
B|--10p8h10---------------10p8h10--------8--------|
G|-----------9--7--5/2-------------9-7h9----------| x2
D|------------------------------------------------|
A|------------------------------------------------|
E|------------------------------------------------|

[Bridge]
F Am F C G
(single strums)

[Chorus 3] - verse strumming continues
e|-----------------------------------------7b--3--|
B|--10p8h10---------------10p8h10--------8--------|
G|-----------9--7--5/2-------------9-7h9----------| x2
D|------------------------------------------------|
A|------------------------------------------------|
E|------------------------------------------------|

[Outro] - verse chords + strum
   F       F         F         F      Am   F        F         F         F      Am  
e|-1--1--x--1-1-1--x--1-1-1--x--1-1-1--0--|-1--1--x--1-1-1--x--1-1-1--x--1-1-1--0--|
B|-1--1--x--1-1-1--x--1-1-1--x--1-1-1--1--|-1--1--x--1-1-1--x--1-1-1--x--1-1-1--1--|
G|-2--2--x--2-2-2--x--2-2-2--x--2-2-2--2--|-2--2--x--2-2-2--x--2-2-2--x--2-2-2--2--|
D|-3--3--x--3-3-3--x--3-3-3--x--3-3-3--2--|-3--3--x--3-3-3--x--3-3-3--x--3-3-3--2--|
A|-------x---------x---------x------------|-------x---------x---------x------------|
E|-------x---------x---------x------------|-------x---------x---------x------------|
 
   G        G         G         G      Am  G        G         G   
e|-3--3--x--3-3-3--x--3-3-3--x--3-3-3--0---3--3--x--3-3-3--x--3-3-3--x--3-3-3--0-|
B|-3--3--x--3-3-3--x--3-3-3--x--3-3-3--1---3--3--x--3-3-3--x--3-3-3--x--3-3-3--1-|
G|-4--4--x--4-4-4--x--3-3-3--x--4-4-4--2---4--4--x--4-4-4--x--4-4-4--x--4-4-4--2-| - repeat till end
D|-5--5--x--5-5-5--x--3-3-3--x--5-5-5--2---5--5--x--5-5-5--x--5-5-5--x--5-5-5--2-|
A|-------x---------x---------x-------------------x---------x---------x---------x-|
E|-------x---------x---------x-------------------x---------x---------x---------x-|

************************************

| x  Slap on strings 
| b  Bend         
| h  Hammer-on
| p  Pull-off
| /  Slide up

************************************

            
            
Suggest correction
Creating personal tab
Creating personal tab
You can edit any tab online and save it as your Personal.

You can edit, replace or remove any tab part or add personal notes – all changes will be seen only by you.

Personal tabs can be accessed anytime from any device, even offline.
Learn more »
Give kudos to tab author, rate the tab!
1 2 3 4 5
comments
print report bad tab
guest
You may want to rate the tab now too:
select rating
Wanna post a correction for this tab? Suggest correction