Oops, an error
Loading. Please wait.

She Shattered Like Glass tab

94 views 3 this week
no commentswrite comment
1 2 3 4 5
2 more votes to show rating
add to favorites
×
Save as Personal and add changes to this tab that will be seen only by you. Learn more ›
×
You can save this tab as Personal to edit and correct it or add notes. All changes will be seen only by you. Learn more »
launch autoscroll
font size
0
reset
how to read this tab
guitar tuner
edit
Autoscroll
slow
fast
+/-
esc
set tempo
stop
About this tab version
This specific tab is based off the studio recorded version (https://www.youtube.com/watch?v=B7wa9tA9zkI), please note the bpm changes throughout the track is listed above. Was this info helpful? Yes No
Boy Eats Girl
She Shattered Like Glass
The Answer To Infection

Tuning: Drop A
BPM: 225(Variable)

Structure:
*Intro (225 bpm)
*Prelude
*breakdown 1
*verse 1
*chorus 
*verse 2
*chorus
*breakdown 2 (261 bpm)
*bridge 1 (stab) (250 bpm)
*bridge 1
*bridge 2  (235 bpm)
*chorus trem (225 bpm)
*chorus

[Intro]
GTR 1:
B |------------------------------------------------------|----------------------------|
F#|------------------------------------------------------|----------------------------|
D |------------------------------------------------------|----------------------------|
A |------------------------------------------------------|8------------7--------------|
E |-------4-4-4--3-3-3-----------------------------------|----------------------------|
A |1-1-1----------------1-1-1--0-0-0--1-1-1--4-4-4--1-1-1|8------------7--------------|

GTR 2:
B |------------------------------------------------------|----------------------------|
F#|------------------------------------------------------|----------------------------|
D |------------------------------------------------------|6------------5--------------|
A |------------------------------------------------------|----------------------------|
E |-------7-7-7--6-6-6-----------------------------------|4------------3--------------|
A |4-4-4----------------4-4-4--3-3-3--4-4-4--7-7-7--4-4-4|----------------------------|

[Prelude]
GTR 1:
B |--------------------------------------------|     |-------------------------------|
F#|--------------------------------------------|     |-------------------------------|
D |--------------------------------------------|  X3 |-------------------------------|
A |--------------------------------------------|     |-------------------------------|
E |-----5--2--4--1-------8--5--7--4--------1--4|     |-------------------------------|
A |0-0--------------0-0--------------0--0------|     |4-4-4-4-4-4-4-4-7-7-7-7-7-7-7-7|

GTR 2: 
B |--------------------------------------------|     |---------------------------------------|
F#|--------------------------------------------|     |---------------------------------------|
D |--------------------------------------------|  X3 |---------------------------------------|
A |--------------------------------------------|     |---------------------------------------|
E |-----8--5--7--4-------11--8--10--7------4--7|     |---------------------------------------|
A |0-0--------------0-0--------------0--0------|     |7-7-7-7-7-7-7-7-10-10-10-10-10-10-10-10|

[prelude extended tail]
GTR 1:
B |----------------|----------------|---------------|---------------|
F#|----------------|----------------|---------------|---------------|
D |----------------|----------------|---------------|6-6-6-6-5-5-5-5|
A |----------------|----------------|---------------|---------------|
E |----------------|----------------|---------------|---------------|
A |4-4-4-4-4-4-4-4-|7-7-7-7-7-7-7-7-|3-3-3-3-3-3-3-3|---------------|

GTR 2: 
B |----------------|------------------------|---------------|---------------|
F#|----------------|------------------------|---------------|---------------|
D |----------------|------------------------|---------------|9-9-9-9-8-8-8-8|
A |----------------|------------------------|---------------|---------------|
E |----------------|------------------------|---------------|---------------|
A |7-7-7-7-7-7-7-7-|10-10-10-10-10-10-10-10-|6-6-6-6-6-6-6-6|---------------|

[breakdown 1]
GTR 1&2:
B |----------------------------------------------------------------|
F#|----------------------------------------------------------------|
D |----------------------------------------------------------------|  
A |----------------------------------------------------------------|
E |0-0-0-0-0-0-0-0-0-0------------0-0-0-0-0-0-0-0-0-0--------------|
A |0-0-0-0-0-0-0-0-0-0------------0-0-0-0-0-0-0-0-0-0--------------|

[verse 1] 
GTR 1:
B |--------------------------------|-------------------------------|
F#|--------------------------------|-------------------------------|
D |--------------------------------|-------------------------------|
A |--------------------------------|-------------------------------|
E |5---5---5---5---5---5---5---5---|4---4---4---4---4---4---4---4--|
A |--0---0---0---0---0---0---0---0-|--0---0---0---0---0---0---0---0|

B |--------------------------------|-------------------------------|
F#|--------------------------------|-------------------------------|
D |--------------------------------|-------------------------------|
A |--------------------------------|-------------------------------|
E |1---1---1---1---1---1---1---1---|0---0---0---0---4---4---4---4--|
A |--0---0---0---0---0---0---0---0-|--0---0---0---0---0---0---0---0|


GTR 2:
B |--------------------------------|-------------------------------|
F#|--------------------------------|-------------------------------|
D |--------------------------------|-------------------------------|
A |--------------------------------|-------------------------------|
E |8---8---8---8---8---8---8---8---|7---7---7---7---7---7---7---7--|
A |--0---0---0---0---0---0---0---0-|--0---0---0---0---0---0---0---0|

B |--------------------------------|-------------------------------|
F#|--------------------------------|-------------------------------|
D |--------------------------------|-------------------------------|
A |--------------------------------|-------------------------------|
E |4---4---4---4---4---4---4---4---|3---3---3---3---7---7---7---7--|
A |--0---0---0---0---0---0---0---0-|--0---0---0---0---0---0---0---0|


GTR 1:
B |--------------------------------|--------------------------------|
F#|--------------------------------|--------------------------------|
D |--------------------------------|--------------------------------|
A |--------------------------------|--------------------------------|
E |--------------------------------|--------------------------------|
A |7-7-7-7-7-7-7-7-7-7-7-7-7-7-7-7-|7-7-7-7-7-7-7-7-7-7-7-7-7-7-7-7-|

B |----------------------------|--------------------------------|
F#|----------------------------|--------------------------------|
D |----------------------------|--------------------------------|
A |----------------------------|--------------------------------|
E |----------------------------|--------------------------------|
A |6-6-6-6-6-6-6-6-6-6-6-6-6-6-|3-3-3-3-3-3-3-3-6-6-6-6-6-6-6-6-|



GTR 2:
B |--------------------------------|--------------------------------|
F#|--------------------------------|--------------------------------|
D |--------------------------------|----------------8-8-------------|
A |--------7-7-----8-8-----7-7-----|--------7-7-------------7-7-----|
E |5-5-8-8-----8-8-----8-8-----8-8-|5-5-8-8-----8-8-----8-8-----8-8-|
A |--------------------------------|--------------------------------|

B |----------------------------|---------------------------------|
F#|----------------------------|---------------------------------|
D |----------------------------|------------------------7-7-10-10|
A |--------6-6-----7-7-----6-6-|--------6-6-----6-6-9-9----------|
E |4-4-7-7-----7-7-----7-7-----|4-4-7-7-----7-7------------------|
A |----------------------------|---------------------------------|

[verse 2] 
GTR 1:
B |--------------------------------|-------------------------------|
F#|--------------------------------|-------------------------------|
D |--------------------------------|-------------------------------|
A |--------------------------------|-------------------------------|
E |5---5---5---5---5---5---5---5---|4---4---4---4---4---4---4---4--|
A |--0---0---0---0---0---0---0---0-|--0---0---0---0---0---0---0---0|

B |--------------------------------|-------------------------------|
F#|--------------------------------|-------------------------------|
D |--------------------------------|-------------------------------|
A |--------------------------------|-------------------------------|
E |1---1---1---1---1---1---1---1---|0---0---0---0---4---4---4---4--|
A |--0---0---0---0---0---0---0---0-|--0---0---0---0---0---0---0---0|


GTR 2:
B |--------------------------------|-------------------------------|
F#|--------------------------------|-------------------------------|
D |--------------------------------|-------------------------------|
A |--------------------------------|-------------------------------|
E |8---8---8---8---8---8---8---8---|7---7---7---7---7---7---7---7--|
A |--0---0---0---0---0---0---0---0-|--0---0---0---0---0---0---0---0|

B |--------------------------------|-------------------------------|
F#|--------------------------------|-------------------------------|
D |--------------------------------|-------------------------------|
A |--------------------------------|-------------------------------|
E |4---4---4---4---4---4---4---4---|3---3---3---3---7---7---7---7--|
A |--0---0---0---0---0---0---0---0-|--0---0---0---0---0---0---0---0|


GTR 1:
B |--------------------------------|--------------------------------|
F#|--------------------------------|--------------------------------|
D |--------------------------------|--------------------------------|
A |--------------------------------|--------------------------------|
E |--------------------------------|--------------------------------|
A |7-7-7-7-7-7-7-7-7-7-7-7-7-7-7-7-|7-7-7-7-7-7-7-7-7-7-7-7-7-7-7-7-|

B |----------------------------|--------------------------------|
F#|----------------------------|--------------------------------|
D |----------------------------|--------------------------------|
A |----------------------------|--------------------------------|
E |----------------------------|--------------------------------|
A |6-6-6-6-6-6-6-6-6-6-6-6-6-6-|3-3-3-3-3-3-3-3-6-6-6-6-6-6-6-6-|

GTR 2:
B |--------------------------------|--------------------------------|
F#|--------------------------------|--------------------------------|
D |--------------------------------|----------------8-8-------------|
A |--------7-7-----8-8-----7-7-----|--------7-7-------------7-7-----|
E |5-5-8-8-----8-8-----8-8-----8-8-|5-5-8-8-----8-8-----8-8-----8-8-|
A |--------------------------------|--------------------------------|

B |----------------------------|---------------------------------|
F#|----------------------------|---------------------------------|
D |----------------------------|------------------------7-7-10-10|
A |--------6-6-----7-7-----6-6-|--------6-6-----6-6-9-9----------|
E |4-4-7-7-----7-7-----7-7-----|4-4-7-7-----7-7------------------|
A |----------------------------|---------------------------------|

[breakdown 2] (261 bpm)
GTR 1:
B |-------------------------------------------|--------------------------------------------------|
F#|-------------------------------------------|--------------------------------------------------|
D |-------------------------------------------|--------------------------------------------------|
A |1---------111--111----------111--111--111--|1---------111--111--------------------------------|
E |0---------000--000----------000--000--000--|0---------000--000---------1------4--1-------1-(1)|
A |1---------111--111----------111--111--111--|1---------111--111-------(X)-2--1-------2-(2)-----|
                                                                                         (ms) (ms)

B |-----------------------------------------------------|----------------------------------------------|
F#|-----------------------------------------------------|----------------------------------------------|
D |-----------------------------------------------------|----------------------------------------------|
A |1---------1-1-1--1-1-1----------1-1-1--1-1-1--1-1-1--|1---------1-1-1--1-1-1------------------------|
E |0---------0-0-0--0-0-0----------0-0-0--0-0-0--0-0-0--|0---------0-0-0--0-0-0------------------------|
A |1---------1-1-1--1-1-1----------1-1-1--1-1-1--1-1-1--|1---------1-1-1--1-1-1-------0----------------|
                                                                                     (d)
GTR 2:
B |-----------------------------------------------------|----------------------------------------------|
F#|-----------------------------------------------------|----------------------------------------------|
D |-----------------------------------------------------|----------------------------------------------|
A |1---------1-1-1--1-1-1----------1-1-1--1-1-1--1-1-1--|1---------1-1-1--1-1-1------------------------|
E |0-0-0-0-0-0-0-0--0-0-0-0-0-0-0--0-0-0--0-0-0--0-0-0--|0-0-0-0-0-0-0-0--0-0-0------------------------|
A |1-1-1-1-1-1-1-1--1-1-1-1-1-1-1--1-1-1--1-1-1--1-1-1--|1-1-1-1-1-1-1-1--1-1-1-------3*---------------|
                                                                                     (ah)

[bridge 1 (stab)] (250 bpm)
GTR 1:
B |---------------------------------------------|--------------------------------------------------|
F#|---------------------------------------------|--------------------------------------------------|
D |---------------------------------------------|------------------------------------------13-16---|
A |---------------------------------------------|-------------------------------12-15-12-15--------|
E |0---------------0-0--0--0--0-----------------|0------0------------11-14-11-14-------------------|
A |0---------------0-0--0--0--0-----------------|0------0-12-15-12-15------------------------------|


GTR 2:
B |---------------------------------------------|--------------------------------------------------|
F#|---------------------------------------------|--------------------------------------------------|
D |---------------------------------------------|------------------------------------------16-19---|
A |---------------------------------12-15-------|-------------------------------15-18-15-18--------|
E |0--------11-14--0-0--------11-14-------11-14-|0------0------------14-17-14-17-------------------|
A |0--12-15--------0-0--12-15-------------------|0------0-15-18-15-18------------------------------|

[bridge 1]
GTR 1:
B |---------------------------------------------------------|
F#|---------------------------------------------------------|
D |10-7-----------10-7---10-7---9-6-----------9-6-9-6---9-6-|
A |---------------------------------------------------------|
E |---------------------------------------------------------|
A |----0-0-0-0-0-0----0-0----0-0---0-0-0-0-0-0-------0-0----|

B |---------------------------------------------------------|
F#|---------------------------------------------------------|
D |10-7-----------10-7---10-7--9-6-----------9-6------------|
A |--------------------------------8-5----5-7----8-5--------|
E |------------------------------------7-4------------0--0--|
A |----0-0-0-0-0-0----0-0----0-0----------------------0--0--|

B |---------------------------------------------------------|
F#|---------------------------------------------------------|
D |10-7-----------10-7---10-7---9-6-----------9-6-9-6---9-6-|
A |---------------------------------------------------------|
E |---------------------------------------------------------|
A |----0-0-0-0-0-0----0-0----0-0---0-0-0-0-0-0-------0-0----|

B |-----------------------------------------------------9-12|
F#|-----------------------------------------11-8---8-11-----|
D |10-7-----------10-7---10-7--9-6--------------9-6---------|
A |--------------------------------8-5---5-7----------------|
E |-----------------------------------7-4-------------------|
A |----0-0-0-0-0-0----0-0----0-0----------------------------|

GTR 2:
B |----------------------------------------------------------------|
F#|----------------------------------------------------------------|
D |13-10-----------13-10---13-10---12-9-----------12-9-12-9---12-9-|
A |----------------------------------------------------------------|
E |----------------------------------------------------------------|
A |-----0-0-0-0-0-0-----0-0-----0-0----0-0-0-0-0-0---------0-0-----|

B |----------------------------------------------------------------|
F#|----------------------------------------------------------------|
D |13-10-----------13-10---13-10--12-9------------12-9-------------|
A |-----------------------------------11-8----8-11----11-8---------|
E |---------------------------------------10-7--------------0--0---|
A |-----0-0-0-0-0-0-----0-0-----0-0-------------------------0--0---|

B |----------------------------------------------------------------|
F#|----------------------------------------------------------------|
D |13-10-----------13-10---13-10---12-9-----------12-9-12-9---12-9-|
A |----------------------------------------------------------------|
E |----------------------------------------------------------------|
A |-----0-0-0-0-0-0-----0-0-----0-0----0-0-0-0-0-0---------0-0-----|

B |-------------------------------------------------------------12-15|
F#|-----------------------------------------------14-11----14-11-----|
D |13-10-----------13-10---13-10---12-9----------------12-9----------|
A |------------------------------------11-8----8-11------------------|
E |----------------------------------------10-7----------------------|
A |-----0-0-0-0-0-0-----0-0-----0-0----------------------------------|

[bridge 2] (235 bpm)
GTR 1&2:
B |--------------------------------|----------------------------------------|
F#|--------------------------------|----------------------------------------|
D |--------------------------------|----------------------------------------|
A |--------------------------------|----------------------------------------|
E |7-------------------------7--7--|6---------------3---------------6-------|
A |7-------------------------7--7--|6---------------3---------------6-------|

B |--------------------------------|----------------------------------------|
F#|--------------------------------|----------------------------------------|
D |--------------------------------|----------------------------------------|
A |--------------------------------|----------------------------------------|
E |7-------------------------7--7--|6---------------3---------------6-------|
A |7-------------------------7--7--|6---------------3-3-3-3-3-3-3-3-6-------|

[Chorus trem] (225 bpm)
GTR 1&2:
B |--------------------------------|--------------------------------|
F#|--------------------------------|--------------------------------|
D |--------------------------------|--------------------------------|
A |--------------------------------|--------------------------------|
E |--------------------------------|--------------------------------|
A |7-7-7-7-7-7-7-7-7-7-7-7-7-7-7-7-|7-7-7-7-7-7-7-7-7-7-7-7-7-7-7-7-|

B |----------------------------|--------------------------------|
F#|----------------------------|--------------------------------|
D |----------------------------|--------------------------------|
A |----------------------------|--------------------------------|
E |----------------------------|--------------------------------|
A |6-6-6-6-6-6-6-6-6-6-6-6-6-6-|3-3-3-3-3-3-3-3-6-6-6-6-6-6-6-6-|

B |--------------------------------|--------------------------------|
F#|--------------------------------|--------------------------------|
D |--------------------------------|--------------------------------|
A |--------------------------------|--------------------------------|
E |--------------------------------|--------------------------------|
A |7-7-7-7-7-7-7-7-7-7-7-7-7-7-7-7-|7-7-7-7-7-7-7-7-7-7-7-7-7-7-7-7-|

B |----------------------------|--------------------------------|
F#|----------------------------|--------------------------------|
D |----------------------------|--------------------------------|
A |----------------------------|--------------------------------|
E |----------------------------|----------------0-0-0---0-0-0---|
A |6-6-6-6-6-6-6-6-6-6-6-6-6-6-|3-3-3-3-3-3-3-3-0-0-0---0-0-0---|


GTR 1:
B |--------------------------------|--------------------------------|
F#|--------------------------------|--------------------------------|
D |--------------------------------|--------------------------------|
A |--------------------------------|--------------------------------|
E |--------------------------------|--------------------------------|
A |7-7-7-7-7-7-7-7-7-7-7-7-7-7-7-7-|7-7-7-7-7-7-7-7-7-7-7-7-7-7-7-7-|

B |----------------------------|--------------------------------|
F#|----------------------------|--------------------------------|
D |----------------------------|--------------------------------|
A |----------------------------|--------------------------------|
E |----------------------------|--------------------------------|
A |6-6-6-6-6-6-6-6-6-6-6-6-6-6-|3-3-3-3-3-3-3-3-6-6-6-6-6-6-6-6-|

GTR 2:
B |--------------------------------|--------------------------------|
F#|--------------------------------|--------------------------------|
D |--------------------------------|----------------8-8-------------|
A |--------7-7-----8-8-----7-7-----|--------7-7-------------7-7-----|
E |5-5-8-8-----8-8-----8-8-----8-8-|5-5-8-8-----8-8-----8-8-----8-8-|
A |--------------------------------|--------------------------------|

B |----------------------------|---------------------------------|
F#|----------------------------|---------------------------------|
D |----------------------------|------------------------7-7-10-10|
A |--------6-6-----7-7-----6-6-|--------6-6-----6-6-9-9----------|
E |4-4-7-7-----7-7-----7-7-----|4-4-7-7-----7-7------------------|
A |----------------------------|---------------------------------|

Tab Legend:
***********************************

|(ah) Artificial Harmonic
|(d)  Tremelo Dive
|(x)  Dead Note
|(ms) Mute Switch Tap /Mute Stutter

*********************************** 
Suggest correction
Creating personal tab
Creating personal tab
You can edit any tab online and save it as your Personal.

You can edit, replace or remove any tab part or add personal notes – all changes will be seen only by you.

Personal tabs can be accessed anytime from any device, even offline.
Learn more »
Give kudos to tab author, rate the tab!
1 2 3 4 5
comments
print report bad tab
guest
You may want to rate the tab now too:
select rating
Wanna post a correction for this tab? Suggest correction