Oops, an error
Loading. Please wait.

Out Of Control Tab

version 1
version 1

Whole song

185 views 1 this week
no commentswrite comment
1 2 3 4 5
excellent!
x 3
add to favorites
launch autoscroll
font size
0
reset
how to read this tab
guitar tuner
Tab Pro tools
  • play this tab
  • loop segment
  • change instrument
  • show fretboard
  • metronome
×
Best way to learn
"Out Of Control"
Autoscroll
slow
fast
+/-
esc
set tempo
stop
Contributor
Artist:Boy-Elroy
Album:A Better Place
Song:Out of Control
Email:alexisonfire066@yahoo.com


x - muted note
~ - let it ring
. - palm mute
/ - slide

STANDARD TUNING

INTRO

GTR 1                             GTR 2
E|------------------------------- ----------------|
B|------------------------------- ----------------|
G|------------------------------- -66666666666666-| ENTERS THE 
D|------------------------------- -xxxxxxxxxxxxxx-| THIRD TIME
A|--6-6-6-9-9-9-8-8-8-8-8-8-8---- -44444444444444-|
E|--4-4-4-7-7-7-6-6-6-6-6-6-6---- ----------------|

    .........................

VERSE 1 BOTH GUITARS
E|-------------------------------|
B|-------------------------------|
G|-------------------------------|
D|--6-6-6/9-9-9\8-8-8-8-8-8-8----|  
A|--6-6-6/9-9-9\8-8-8-8-8-8-8----|
E|--4-4-4/7-7-7\6-6-6-6-6-6-6----|


Chorus

GTR 1                             GTR 2
E|------------------------------- ------------------------|
B|------------------------------- ------------------------|
G|-6~~~~~~------------6---------- -6~---------------------|
D|-6~~~~~~--6~~~~~~~--6~~~~~~--6- -6~----6xxx6xxx6xxx6xxx-|
A|-4~~~~~~--6~~~~~~~--4~~~~~~--6- -4~----6xxx6xxx6xxx6xxx-|
E|----------4~~~~~~~-----------4- -------4xxx4xxx4xxx4xxx-|

VERSE 2

E|-------------------------------|
B|-------------------------------|
G|-------------------------------|
D|--6-6-6/9-9-9\8-8-8-8-8-8-8----|  
A|--6-6-6/9-9-9\8-8-8-8-8-8-8----|
E|--4-4-4/7-7-7\6-6-6-6-6-6-6----|
    .........................

REPEAT CHORUS


vERSE 3 
                                        
comments
We did not receive enough feedback on this tab! Please rate:
print report bad tab
1 2 3 4 5
I want to post or [tab]
guest
You may want to rate the tab now too:
select rating
Please do not post tabs as comments. Select "correction" instead!