Oops, an error
Loading. Please wait.

Out Of Control Tab

version 2
version 2

Whole song

60 views 1 this week
no commentswrite comment
1 2 3 4 5
please rate
add to favorites
launch autoscroll
font size
0
reset
how to read this tab
guitar tuner
Tab Pro tools
  • play this tab
  • loop segment
  • change instrument
  • show fretboard
  • metronome
Autoscroll
slow
fast
+/-
esc
set tempo
stop
Contributor
OUT OF CONTROL -- BOY ELROY 
TABBED BY JERE VALENZUELA 


Guitar Legends:
. palm mute
~ let ring
X mute note
\ slide

Tuning : Standard (eBGDAE)

INTRO
4X
E|------------------|
B|------------------|
G|------------------|
D|------------------|
A|--555-888-77777---|        
E|--333-666-55555---|
pm  ... ... .....

LEAD(AFTER 2X OF 1ST GTR.)
E|---------------------------||--------------|
B|---------------------------||--------------|
G|--77777777777777777777777--||----55--------|
D|--XXXXXXXXXXXXXXXXXXXXXXX--||----55-4~-----|
A|--55555555555555555555555--||----33-4~-----|
E|---------------------------||-------2~-----|
                               pm  .. 


VERSE 1 GTR 1 & 2
4X
E|-------------------|
B|-------------------|
G|-------------------|
D|--444\666\555555---|
A|--444\666\555555---|
E|--222\444\333333---|


CHORUS
E|-----------------------|  |-----------------------------------------|
B|-----------------------|  |-----------------------------------------|
G|-----7~---------5~-----|  |---7~-------5XXXX-5XXXX--5XXXX--5XXXX5---|
D|-----7~---------5~-----|1X|---7~-------5XXXX-5XXXX--5XXXX--5XXXX5---|1X
A|-----5~---------3~-----|  |---5~-------3XXXX-3XXXX--3XXXX--3XXXX3---|
E|-----------------------|  |-----------------------------------------|

VERSE 2
4X
     2 Guitars
E|------------------|
B|------------------|
G|------------------|
D|------------------|
A|--555-888-77777---|        
E|--333-666-55555---|
pm  ... ... .....


REPEAT CHORUS

BRIDGE PART 2
GTR.1 AND 2
               3 TIMES       THEN.... One time only
E|-----------------------------| |---------------------------------------|
B|-----------------------------| |---------------------------------------|
G|--7777777777--44444-55544----| |--7777777777---4XXXX4XXXX4XXXX4XXXX4---|
D|--7777777777--44444-55544----| |--7777777777---4XXXX4XXXX4XXXX4XXXX4---|
A|--5555555555--22222-33322----| |--5555555555---2XXXX2XXXX2XXXX2XXXX2---|
E|-----------------------------| |---------------------------------------|

BRIDGE PART 2

GTR.1
4X
E|------------------|
B|------------------|
G|------------------|
D|------------------|
A|--555--888-77777--|
E|--333--666-55555--|
LEAD 
E|------------------|  |------------------|
B|------------------|  |------------------|
G|------------------|  |----333--22~------|
D|------------------|2X|------------------|1X
A|--555-888-77777---|  |------------------|       
E|--333-666-55555---|  |------------------|
pm  ... ... .....

CHORUS 

E|-----------------------|  |-----------------------------------------|
B|-----------------------|  |-----------------------------------------|
G|-----7~---------5~-----|  |---7~-------5XXXX-5XXXX--5XXXX--5XXXX5---|
D|-----7~---------5~-----|3X|---7~-------5XXXX-5XXXX--5XXXX--5XXXX5---|1X
A|-----5~---------3~-----|  |---5~-------3XXXX-3XXXX--3XXXX--3XXXX3---|
E|-----------------------|  |-----------------------------------------|

OUTRO
2X
E|------------------|
B|------------------|
G|------------------|
D|------------------|
A|------------------|
E|--333--666-55555--|

LEAD
2X
E|------------------|
B|------------------|
G|------------------|
D|------------------|
A|--555-888-77777---|        
E|--333-666-55555---|
pm  ... ... .....


Done !
comments
We did not receive enough feedback on this tab! Please rate:
print report bad tab
1 2 3 4 5
I want to post or [tab]
guest
You may want to rate the tab now too:
select rating
Please do not post tabs as comments. Select "correction" instead!