Oops, an error
Loading. Please wait.

Suzie Tab

version 2
version 2

Whole song

Interactive

4,484 views 1 this week
1 commentread comment
1 2 3 4 5
accurate
x 6
add to favorites
launch autoscroll
font size
0
reset
how to read this tab
guitar tuner
Autoscroll
slow
fast
+/-
esc
set tempo
stop
Help us to improve Ultimate-Guitar.com Take our survey!
×
BOY KILL BOY

SUZIE

Intro/verse

E|---------------------|
B|---------------------|
G|-7-7---9-9---11-11---|
D|-x-x---x-x----x--x---|
A|-x-x---x-x----x--x---|
E|-7-7---8-8---10-10---|

Pre Chorus

E|----3-3---2-2---3-3---2-2-----------------------------|
B|----3-3---3-2---3-3---3-3---7777-8888-1010101010101010|
G|----4-4---4-4---4-4---4-4---7777-7777-7-7-7-7-7-7-7-7-|
D|----5-5---4-4---5-5---4-4-----------------------------|
A|----5-5---2-2---5-5---2-2-----------------------------|
E|----3-3---------3-3-----------------------------------|

Chorus

Strum the chords below

E|----------------------------------|
B|----------------------------------|
G|---12------12------9------7-------|
D|---12------12------9------7-------|  X2
A|---10-------0------7------5-------|
E|----------------------------------|

Break

E|---------------------------------------------------------------------|
B|---------------------------------------------------------------------|
G|----------4-4-5-5--------4-4-5-5---------5-5-7-7--------5-5-7-7------|
D|------5-5------------5-5-------------7-7------------7-7--------------| X2
A|--3-3------------3-3-------------5-5------------5-5------------------|
E|---------------------------------------------------------------------|

End on a G Chord

i think all the different bits, i think this tab is almost 100% right. but if you wanna 
on this tab or correct me or anything like that my email is  chrisb509@hotmail.com

Chris!!

www.myspace.com/ricochetrock
Suggest correction
comments
print report bad tab
1 comment total.
0 reply
Tom Morelllo 10 wrote on March 24 2008, 03:02 pm

:]

guest
You may want to rate the tab now too:
select rating
Wanna post a correction for this tab? Suggest correction