Oops, an error
Loading. Please wait.

Bleeding In Love Tab

version 1
version 1

Whole song

196,540 views 27 this week
14 commentsread comments
1 2 3 4 5
x 23
add to favorites
launch autoscroll
font size
0
reset
how to read this tab
guitar tuner
×
Best way to learn
"Bleeding In Love"
Autoscroll
slow
fast
+/-
esc
set tempo
stop
Author
[Verse]
C*
 Closed off from love I didn't need the pain
Am*
  Once or twice was enough and it was all in vain
F*                                                  G*
  Time starts to pass before you know it you're fro-zen
Ooooh...
C*                 C^             C*              C^
  But something ha-ppened for the very first time with you
Am*             Am^       Am*               Am^
  My heart melts into the ground found some-thing true
F*               F^       F*                 F^        G*
 And everyone's looking a-round thinking I'm going cra-zy...
G^   G*
 Yeahh.....

[Chorus]
C
 But I don't care what they say I'm in love with you
Am
  They try to pull me away but they don't know the truth
F                                                   G
 My heart's crippled by the vein that I keep on clo-sing
(G)
 You cut me open and I
C
 Keep bleeding, keep, keep bleeding love
Am
 I keep bleeding I keep, keep bleeding love
F                                   G
 Keep bleeding, keep, keep bleeding love
(G)
 You cut me open

e|--------------------------|
B|----1~----1-----1~----1---|
G|---0-----0-----0-----0----|
D|--------------------------|
A|-3-----3-----3-----3------|
E|--------------------------|
Trying hard not to hear but they talk so loud

e|----------------------------|
B|-----1~----1-----1~----1----|
G|---------2-----------2------|
D|---2---2-------2---2--------|
A|-0-----------0--------------|
E|----------------------------|
Their piercing sounds fill my ears try to fill me with doubt

e|----------------------------|
B|-----1~---1-----1~----1-----|
G|----------------------------|
D|---3----3-----3-----3-------|
A|----------------------------|
E|-1----1-----1-----1---------|
Yet I know that their goal is to keep me from fa-

e|----------------------------|
B|-----3~---3-----3~----3-----|
G|----------------------------|
D|---0----0-----0-----0-------|
A|----------------------------|
E|-3----3-----3-----3---------|
-lling

Hey, yeah!
e|-----------------------------------|
B|------1-------1-------1-------1----|
G|----0---0---0---0---0---0---0---0--|
D|-----------------------------------|
A|-3----------------3----------------|
E|----------3---------------3--------|
But nothing's greater than the rush that comes with your embrace

e|-----------------------------------|
B|------1-------1-------1-------1----|
G|----2---2---2---2---2---2---2---2--|
D|----------2---------------2--------|
A|-0----------------0----------------|
E|-----------------------------------|
And in this world of loneliness I see your face

e|-----------------------------------|
B|------1-------1-------1-------1----|
G|----2---2---2---2---2---2---2---2--|
D|-----------------------------------|
A|-----------3---------------3-------|
E|-1----------------1----------------|
Yet everyone around me thinks that I'm going cra-

e|-----------------------------------|
B|------3-------3-------3-------3----|
G|----0---0---0---0---0---0---0---0--|
D|-----------------------------------|
A|-----------------------------------|
E|-3--------3-------3-------3--------|
-zy...maybe, maybe

[Chorus]
C
 But I don't care what they say I'm in love with you
Am
  They try to pull me away but they don't know the truth
F                                                   G
 My heart's crippled by the vein that I keep on clo-sing
(G)
 You cut me open and I
C
 Keep bleeding, keep, keep bleeding love
Am
 I keep bleeding I keep, keep bleeding love
F                                   G
 Keep bleeding, keep, keep bleeding love

[Bridge]
(G)                 Am
 You cut me open and I...Ohhh
F                    C
 You cut me open and I
                G
I keep bleeding love, you cut me open.

e|------------------------------------------0~~|
B|------1---------------------1-------------1~~|
G|----2---------------------2---------------0~~|
D|------------------------------------------2~~|
A|-0----------------------------------------3~~|
E|------------------------1--------------------|
    I keep bleeding, I keep, keep bleeding love.


************************************

| ~  Vibrato

************************************
Suggest correction
comments
print report bad tab
14 comments total. Showing first comments.
0 reply
-kroc- 154 Jan 08, 2009 12:18 PM

it's not in standard tuneing

0 reply
Dameet 194 Jan 11, 2009 07:27 PM

um...yeah it is...

+1 reply
Dameet 194 Jan 11, 2009 07:28 PM

the original is in another key, but the cover by boyce avenue is in standard tuning just different key

guest
You may want to rate the tab now too:
select rating
Wanna post a correction for this tab? Suggest correction