Oops, an error
Loading. Please wait.

Bleeding In Love Tab

version 2
version 2

Whole song

15,563 views 18 this week
3 commentsread comments
1 2 3 4 5
accurate
x 4
add to favorites
launch autoscroll
font size
0
reset
how to read this tab
guitar tuner
Tab Pro tools
  • play this tab
  • loop segment
  • change instrument
  • show fretboard
  • metronome
×
Best way to learn
"Bleeding In Love"
Autoscroll
slow
fast
+/-
esc
set tempo
stop
Song: BLEEDING IN LOVE
Artist: Boyce Avenue

Intro:

Verse 1:
e|-------------------------------------------------------------------------------|
B|-------------------------------------------------------------------------------|
G|-5-5---------------------------------------------------------------------------|
D|-5-5-----------------------------------------7-7-------------------------------|
A|-3-3-----------------------------------------7-7-------------------------------|
E|---------------------------------------------5-5-------------------------------|
  C                                            Am
  Closed off from love i didn’t need the pain, Once or twice was enough and it was

e|-------------------------------------------------------------------------------|
B|-------------------------------------------------------------------------------|
G|-------------------------------------------------------------------------------|
D|-------------3-3----------------5-5--------------------------------------------|
A|-------------3-3----------------5-5--------------------------------------------|
E|-------------1-1----------------3-3--------------------------------------------|
               F                  G
  All in vain. Time start to pass Before you know it you’re frozen

e|-------------------------------------------------------------------------------|
B|-------------------------------------------------------------------------------|
G|-5-5----------------5----------------------------------------------------------|
D|-5-5----------------5---------------------------------7-7-----------7----------|
A|-3-3----------------3---------------------------------7-7-----------7----------|
E|------------------------------------------------------5-5-----------5----------|
  C                                                     Am
  But something happen for the very first time with you.My heart melts into ground

e|-------------------------------------------------------------------------------|
B|-------------------------------------------------------------------------------|
G|-------------------------------------------------------------------------------|
D|----------------------3-3------------3--------------5-5------------5-----------|
A|----------------------3-3------------3--------------5-5------------5-----------|
E|----------------------1-1------------1--------------3-3------------3-----------|
                        F                             G
  Found something true. And everyone’s looking round. Thinking i’m going crazy.


Refrain:
e|-----------------------------------------------------------------------------|
B|-----------------------------------------------------------------------------|
G|-5---------------------------------------------------------------------------|
D|-5-(16x)---------------------------------------------7-----------------------|
A|-3---------------------------------------------------7-(16x)-----------------|
E|-----------------------------------------------------5-----------------------|
  C                                                    Am
  But i don’t care what they say I’m in love with you. They try to pull me away
e|-----------------------------------------------------------------------------|
B|-----------------------------------------------------------------------------|
G|-----------------------------------------------------------------------------|
D|-------------------------------10--------------------------------------------|
A|-------------------------------10-(16x)--------------------------------------|
E|-------------------------------8---------------------------------------------|
                                 F
  But they don’t know the truth. My hearts crippled by the vain That it keep on
e|-----------------------------------------------------------------------------|
B|-----------------------------------------------------------------------------|
G|-----------------------------------------------------------------------------|
D|---------5-------------------------------------------------------------------|
A|---------5-(16x)-------------------------------------------------------------|
E|---------3-------------------------------------------------------------------|
           G
  closing. You cut me open and i.




Chorus:
e|-0---------------------------------------0-----------------------------------|
B|-1---------------------------------------1-----------------------------------|
G|-0---------------------------------------2-----------------------------------|
D|-2-(16x)---------------------------------2-(16x)-----------------------------|
A|-3---------------------------------------0-----------------------------------|
E|-x---------------------------------------x-----------------------------------|
   C                                       Am
  Keep bleeding keep, keep bleeding love  Keep bleeding keep, keep bleeding love
e|-1--------------------------------------3------------------------------------|
B|-1--------------------------------------3------------------------------------|
G|-1--------------------------------------0------------------------------------|
D|-3-(16x)--------------------------------0-(16x)------------------------------|
A|-3--------------------------------------2------------------------------------|
E|-1--------------------------------------3------------------------------------|
   F                                      G
  Keep bleeding keep, keep bleeding love You cut me open.

Verse 2:
e|------0-----0----------0------0-------------0------0-----------0------0------|
B|-----------------------------------------------------------------------------|
G|----------0----------------0--------------------2------------------2---------|
D|---2----2-----------2----2---------------2----2-------------2----2-----------|
A|-3----------------3--------------------0------------------0------------------|
E|-----------------------------------------------------------------------------|
   C                                   Am
  Trying hard not to clear but...     Thier piercing sounds fill my ears try...
e|------1--------1-------1------1----------3------3-------3------3-------------|
B|-----------------------------------------------------------------------------|
G|-----------------------------------------------------------------------------|
D|-----------3---------------3-----------------0---------------0---------------|
A|---3-----3---------3-----3-----------2-----2---------2-----2-----------------|
E|-1---------------1-----------------3---------------3-------------------------|
   F                                 G
  Yet i know that the goal is to keep me from falling...yeah
e|-----0-------0--------0-------0------------0-------0--------0-------0--------|
B|--------1-------1--------1-------1-----------1-------1--------1-------1------|
G|------------0----------------0-------------------2----------------2----------|
D|---2------2---------2------2-------------2-----2----------2-----2------------|
A|-3----------------3--------------------0----------------0--------------------|
E|-----------------------------------------------------------------------------|
   C                                     Am
  But nothing’s greater than the rush... And in this world of loneliness i...
e|------1-------1-------1-------1----------3-------3--------3-------3----------|
B|--------1-------1-------1-------1----------3-------3--------3-------3--------|
G|-----------------------------------------------------------------------------|
D|------------3---------------3------------------0----------------0------------|
A|---3------3---------3-----3-----------2------2---------2------2--------------|
E|-1----------------1-----------------3----------------3-----------------------|
   F                                  G
  Yet everyone around me thinks im..  maybe, maybe.


Refrain:
e|-----------------------------------------------------------------------------|
B|-----------------------------------------------------------------------------|
G|-5---------------------------------------------------------------------------|
D|-5-(16x)---------------------------------------------7-----------------------|
A|-3---------------------------------------------------7-(16x)-----------------|
E|-----------------------------------------------------5-----------------------|
  C                                                    Am
  But i don’t care what they say I’m in love with you. They try to pull me away
e|-----------------------------------------------------------------------------|
B|-----------------------------------------------------------------------------|
G|-----------------------------------------------------------------------------|
D|-------------------------------10--------------------------------------------|
A|-------------------------------10-(16x)--------------------------------------|
E|-------------------------------8---------------------------------------------|
                                 F
  But they don’t know the truth. My hearts crippled by the vain That it keep on
e|-----------------------------------------------------------------------------|
B|-----------------------------------------------------------------------------|
G|-----------------------------------------------------------------------------|
D|---------5-------------------------------------------------------------------|
A|---------5-(16x)-------------------------------------------------------------|
E|---------3-------------------------------------------------------------------|
           G
  closing. You cut me open and i.


Chorus:

   C
  Keep bleeding keep, keep bleeding love
   Am
  Keep bleeding keep, keep bleeding love
   F
  Keep bleeding keep, keep bleeding love
   G          Am      F
  You cut me open and i
            Am
  You cut me open and i
           G  G4
  I keep bleeding love
            Am
  You cut me open and

  I keep bleeding
  F              C
  Keep, keep bleeding love...

   -THE END-

Im not 100% sure of this tabs. Just listen to the song to know the timing for the 
plucking and strumming.
comments
print report bad tab
3 comments total.
+1 reply
Circus50 wrote on October 12 2012, 03:14 pm

you missed notes in chorus and i think its different tunning.

+1 reply
Circus50 wrote on October 12 2012, 03:21 pm

its C G C G C C

0 reply
Lester Talisic wrote on October 16 2012, 08:12 pm, edited on December 28 2013, 09:43 pm

im not sure about my tabs, maybe you are correct.

I want to post or [tab]
guest
You may want to rate the tab now too:
select rating
Please do not post tabs as comments. Select "correction" instead!