Oops, an error
Loading. Please wait.

Breakeven Tab

version 1
version 1

Whole song

84,651 views 93 this week
2 commentsread comments
1 2 3 4 5
excellent!
x 15
add to favorites
launch autoscroll
font size
0
reset
how to read this tab
guitar tuner
Autoscroll
slow
fast
+/-
esc
set tempo
stop
Help us to improve Ultimate-Guitar.com Take our survey!
×
Author
Difficulty
intermediate
Drop D tuning

My first tab guys. As accurate as possible this tab. I saw Alejandro's finger placement 
and hearing the tabs. This is pretty accurate. Have fun ^^


[Intro]

E|-----------------------------------------------------------------------|
B|-------0------0-----0-----0--------------------------------------------|
G|-----------------------------------------------------------------------|        X2
D|--5------5-------5-----5-----5------5p4--4--4h5-----5--5--4------------|
A|--3------3----3---------------------5---5------------------------------|
D|-----------------5-----5--5--5---5----------2----2---2--2--2-----------|

Intro 2nd Part (Strumming)
E|-----0------0------0------0---|
B|-----0------0------3------0---|
G|-----0------4------0------0---|
D|-----2------0------4------0---|
A|-----3------x------5------2---|
D|-----x------5------x------2---|


Intro 3rd part + 1st  Verse 1st part

E|-----------------------------------------------------------------|
B|-----------------------------------------------------------------|
G|-----------------------------------------------------------------|      X5
D|-----5-----5----5-----5-------5-----5------5------5--------------|
A|----------------------------------------0------0-----------------|
D|--2-----2----0-----0-------5-----5-------------------------------|


[1st Verse 2nd Part]
E|-----------------------------------------------------------|
B|-----------------------------------------------------------|
G|-----4-----4----2-----2-------4-----4------5------5--------|
D|-----5-----5----5-----5-------5-----5------5------5--------|
A|----------------------------------------0------0-----------|
D|--2-----2----0-----0------5-----5--------------------------|


Chords before chorus
E|---x---x---x---x---x---x---|
B|---0---0---0---0---0---0---|
G|---4---4---4---5---5---5---|
D|---5---5---5---5---5---5---|
A|---x---x---x---x---x---x---|
D|---5---5---5---5---5---5---|


Chords in the chorus are the same as in intro part 2 X4

2nd verse same as the 1st verse


[Bridge]

E|-----------------------------------------------------|
B|-----------------------------------------------------|
G|------------0h2----0-------4---------4--4--5--4------|
D|---4h5---5-----------0--0-------0----5--5--5--5------|
A|--------------------------------------3--3--3--3-----|
D|---2---2----4----4---------5--5----------------------|


End of bridge (cause you left me....)
E|---5----------|
B|---5----------|
G|---5-----X16--|
D|---5----------|
A|---3----------|
D|---x----------|


Play the 1st part of the verse here.

[Chorus]

When playing out the song, ( it don't breakeven ) there is a bit of palm muting. You 
have to figure it out yourself :x Sorry^^

When he plays the final two chords, he strums the last 2 chords twice and the last chord once.

E|---0-----0--------0~---|
B|---3-----3--------0~---|
G|---0-----0--------0~---|
D|---4-----4--------0~---|
A|---5-----5--------2~---|
E|---x-----x--------2~---|

Like that.

All information i give is to the people who have not had enough experience in guitar! As 
for strumming patterns, I'm sorry I can't help you out. You have to figure that out 
yourself. Hope this is at least 90 percent right :)


- TheEpicness360
Suggest correction
comments
print report bad tab
2 comments total.
0 reply
kllerdragonx 69 wrote on June 21 2012, 02:15 am

Umm, for the second verse it's the same as the first verse part 2! :D

0 reply
cs800913 10 wrote on October 21 2012, 04:23 pm

thank u so much
for the tabs

guest
You may want to rate the tab now too:
select rating
Wanna post a correction for this tab? Suggest correction