Oops, an error
Loading. Please wait.

Call Me Maybe tab

739 views 12 this week
no commentswrite comment
1 2 3 4 5
1 last vote to show rating
add to favorites
×
Save as Personal and add changes to this tab that will be seen only by you. Learn more ›
×
You can save this tab as Personal to edit and correct it or add notes. All changes will be seen only by you. Learn more »
launch autoscroll
font size
0
reset
how to read this tab
guitar tuner
edit
Autoscroll
slow
fast
+/-
esc
set tempo
stop
This is my first tab, there was none around for this song that was accurate so I decided to do it myself.
I think its 99% correct.
3/7/2016

-------------------------------------------------------------------------------
                             Call Me Maybe - Boyce Avenue
-------------------------------------------------------------------------------
Tabbed by: ChrisMarshallvsTheRock

TUNING:  Open C#  (modified)  C#G#C#G#C#C#

https://www.youtube.com/watch?v=CAIsqvK1Pr0
Arrangement by Alejandro Manzano (Boyce Avenue)
             
Enjoy! Rate 5 Stars

************************************
| h   hammer-on
| p   pull-off
| <>   harmonic
| x   Mute note
| / \ Slide up or Down
************************************   
This is in order. Play as stated.


INTRO (Picked)
--------------------------
---0-----0-----0----0--0--
--0-----0-----0----0--0---
-0-----4-----0------------
------2-----------5--4----
5-----------5-------------


Verse 1 - Plucked (Sounds better strummed once muting the x strings)
-----------------
0----0----0---0-0
-----------------
0----4----0---4-2
x----2----x---2-0
5----x----5---x-x

-----------------
0----0----0---0-0
-----------------
0----4----0---0-0
x----2----x---5-4
5----x----5---x-x

Pre-Chorus 1 - Picked
--------------------------
---0-----0-----0----0--0--
--0-----0-----0----0--0---
-0-----4-----0------------
------2-----------5--4----
5-----------5-------------


Chorus 1 - Plucked (Sounds better strummed once muting the x strings)
------------------------------<12>
0----0-0----0-0---0-0---0----<12>-
----------------------------<12>--
0----0-2----4-0---0-2---0---------
x----4-0----2-x---4-0---x---------
5----x-x----x-5---x-x---5---------


Verse 2 - Picked  (x2)
--------------------
---0----0----0---0--
--0----0----0---0---
-0----0----4---2----
----------2---0-----
5----5--------------

------------------------
---0----0----0h2---2p0--
--0----0----0-----0-----
-0----0-----------------
----------5-----4-------
5----5------------------

Pre-Chorus 2 - Strummed/Plucked quickly and lightly
-----------------------
0-0----0-0---0-0----0-0
-----------------------
0-0----2-2---0-0----0-0
x-x----4-0---x-x----5-4
5-5----x-x---5-5----x-x

Chorus 2 - Strummed  (Single strum)  
0----0-0----0-0---0-0--
0----0-0----0-0---0-0--
0----0-0----0-0---0-0--
0----0-2----4-0---0-2--
x----4-0----2-x---4-0--
5----x-x----x-5---x-x--

0----0-0----0-0---0-0----<12>
0----0-0----0-0---0-0----<12>
0----0-0----0-0---0-0----<12>
0----0-2----4-0---0-2-------
x----4-0----2-x---4-0-------
5----x-x----x-5---x-x-------

Full Strumming (Mostly down strokes)
0----0-0----0-0---0-0--
0----0-0----0-0---0-0--
0----0-0----0-0---0-0--
0----0-2----4-0---0-2--
x----4-0----2-x---4-0--
5----x-x----x-5---x-x--

Fast Down Strokes x2
-----------------------
-----------------------
-----------------------
0----0---0-----0--/0-\0
x----x---x-----x--/x-\x
5----7---5-----5--/9-\7

Single Strum
0----0-0----0-0---0-0----
0----0-0----0-0---0-0----
0----0-0----0-0---0-0----
0----0-2----4-0---0-2----
x----4-0----2-x---4-0----
5----x-x----x-5---x-x----

Pre Chorus 3 - Light Strumming / Plucking
0----0-0----0-0---0-0----x-
0----0-0----0-0---0-0----x-
0----0-0----0-0---0-0----x-
0----0-2----4-0---0-2----x-
x----4-0----2-x---4-0----x-
5----x-x----x-5---x-x----x-

Chorus 3 - Full Strumming (Mostly down strokes) x2
0----0-0----0-0---0-0--
0----0-0----0-0---0-0--
0----0-0----0-0---0-0--
0----0-2----4-0---0-2--
x----4-0----2-x---4-0--
5----x-x----x-5---x-x--

Outro -  Fast Down Strokes x2
-----------------------
-----------------------
-----------------------
0----0---0-----0--/0-\0
x----x---x-----x--/x-\x
5----7---5-----5--/9-\7

End on
---
---
---
0--
x--
5--



Thank you. Enjoy.



Suggest correction
Creating personal tab
Creating personal tab
You can edit any tab online and save it as your Personal.

You can edit, replace or remove any tab part or add personal notes – all changes will be seen only by you.

Personal tabs can be accessed anytime from any device, even offline.
Learn more »
Give kudos to tab author, rate the tab!
1 2 3 4 5
comments
print report bad tab
guest
You may want to rate the tab now too:
select rating
Wanna post a correction for this tab? Suggest correction