Oops, an error
Loading. Please wait.

Dare To Believe Tab

version 2
version 2

Whole song

5,239 views 3 this week
no commentswrite comment
1 2 3 4 5
please rate
add to favorites
launch autoscroll
font size
0
reset
how to read this tab
guitar tuner
Tab Pro tools
  • play this tab
  • loop segment
  • change instrument
  • show fretboard
  • metronome
Autoscroll
slow
fast
+/-
esc
set tempo
stop
Contributor
Difficulty
intermediate
Tabbed by: Gabriel Zemuner
gabrielzemuner@live.com

Tuning: Standard (capo 4th fret)


Intro:
(3)--x---x--x--x--x-|
-3---3---3--3--3--3-|
-0---0---0--0--0--2-|
-0---x---2--4--0--0-|
-x---x---3--5--2--0-|
-3---2------------2-|


Verse:(play 2x)
-x---x---x---x-|
-3---3---3---3-|
-0---0---2---0-|
-2---0---0---2-| (raked)
-2---2--(0)--3-|
-0---3---------|


Pre-chorus:
-x---x----x---x-|
-3---3----3---3-|
-0---0----2---0-|
-2---0----0---2-| (strummed)
-0^2-0^2-(0)--3-|
-0---3----------|

-x---x---x-|
-3---3---3-|
-0---0---2-|
-4---0---0-|
-5---2---0-|
---------2-|


Chorus:(play 2x)
(3)--x---x--x--x--x-|
-3---3---3--3--3--3-|
-0---0---0--0--0--2-|
-0---x---2--4--0--0-|
-x---x---3--5--2--0-|
-3---2------------2-|


Turnaround:
-x---x----x---x-|
-3---3----3---3-|
-0---0----2---0-|
-2---0----0---2-| (strummed)
-0^2-0^2-(0)--3-|
-0---3----------|

Bridge:
-x------x---x-----x--x--x--x--x--x-|
-3------3---3-----3--3--3--3--3--3-|
-0------0---2-----0--2--0--0--0--0-|
-2------0---0-----2--0--0--x--2--x-|
-2------2--(0)----2-----2--x--2--x-|
-0------3---------0-----3--2--0--2-|

Chorus:(play 3x)
(3)--x---x--x--x--x-|
-3---3---3--3--3--3-|
-0---0---0--0--0--2-|
-0---x---2--4--0--0-|
-x---x---3--5--2--0-|
-3---2------------2-|



comments
We did not receive enough feedback on this tab! Please rate:
print report bad tab
1 2 3 4 5
I want to post or [tab]
guest
You may want to rate the tab now too:
select rating
Please do not post tabs as comments. Select "correction" instead!