Oops, an error
Loading. Please wait.

Dream On Tab

2,035 views 84 this week
no commentswrite comment
1 2 3 4 5
1 last vote to show rating
add to favorites
launch autoscroll
font size
0
reset
how to read this tab
guitar tuner
Autoscroll
slow
fast
+/-
esc
set tempo
stop
Help us to improve Ultimate-Guitar.com Take our survey!
×
Author
About this tab version
Acoustic cover by Boyce Avenue. Was this info helpful? Yes No
[Intro]
D#|-4-----4---|-3-----3---|-4-----4---|-3-----3---|
A#|-6-----6---|-4-----4---|-3-----3---|-2-----2---|
F#|----5-----5|----5-----5|----5-----5|----5----5-|
D|------------|-----------|-----------|-----------|
G#|-----------|-----------|-----------|-----------|
E|--0---------|-----------|-----------|-----------|

D#|-4-----4---|-6-----6---|--8-----8---|--8--------|
A#|-6-----6---|-6-----6---|--6-----6---|--6--------|
F#|----5-----5|----5-----5|----5-----5-|-----------|
D|------------|-----------|------------|-----------|
G#|-----------|-----------|------------|-----------|
E|-0----------|-----------|------------|-----------|

D#|-4-----4---|-3-----3---|--4-----4---|-3-----3---|
A#|-6-----6---|-4-----4---|--3-----3---|-2-----2---|
F#|----5-----5|----5-----5|-----5-----5|----5-----5|
D|------------|-0---------|------------|-----------|
G#|-----------|-----------|--5---------|-4---------|
E|-0----------|-----------|------------|-----------|

D#|-4-----4---|-6-----6---|--8-----8---|--8---6---4|
A#|-6-----6---|-6-----6---|--6-----6---|--6---6---6|
F#|----5-----5|----5-----5|----5-----5-|-----------|
D|------------|-----------|------------|-----------|
G#|-----------|-----------|------------|-----------|
E|-0----------|-----------|------------|-----------|

D#|--8-----8---|----6---4--|-----------|-----------|
A#|--9-----9---|----6---6--|-----------|-----------|
G|----7-----7-|-----------6|-6--5--6--5|-6--5--6--5|
D|--7-----7---|------------|-----------|-----------|
G#|-----------|------------|-----------|-7---------|
E|------------|------------|-0---------|-----------|

D#|----------------|--------------------|--------------------------|
A#|-----------5/6/8|-6/8/9-8/9/11-9h11p9|-8h9p8-6h8p6-4h6p4--2-1/13|
F#|-6/5/3-5-6------|--------------------|--------------------------|
D|-0---------------|--------------------|--------------------------|
G#|----------------|--------------------|--------------------------|
E|-----------------|--------------------|--------------------------|



Suggest correction
Give kudos to tab author, rate the tab!
1 2 3 4 5
comments
print report bad tab
guest
You may want to rate the tab now too:
select rating
Wanna post a correction for this tab? Suggest correction