Oops, an error
Loading. Please wait.

Drops Of Jupiter Chords

version 1
version 1

Whole song

225,792 views 108 this week
7 commentsread comments
1 2 3 4 5
x 26
add to favorites
launch autoscroll
font size
0
reset
transpose
0
reset
display chords
guitar tuner
Autoscroll
slow
fast
+/-
esc
set tempo
stop
Help us to improve Ultimate-Guitar.com Take our survey!
×
Author
Difficulty
Tuning
Capo
novice
D A D G B E
3rd fret
Capo on the 3rd fret.
[Intro/Verse]
E|--x---x-x--x--x-x--x-----x-x--x-x-x-----x-x----|
B|--0---0-0--3--3-3--3-----3-3--x-x-x-----x-x----|
G|--4---4-5--2--2-4--2p0---0-0--0-0-0-----0-0----| Repeat
D|--0---0-0--0--0-0--x-----2-x--0-0-0h2---2-0----|
A|--x---x-x--0--0-0--3-----3-3--3-3-3-----3-3----|
D|--5---5-5--x--x-x--x-----x-x--x-x-x-----x-x----|

[Chorus]
E|--x--x--3--x------|                                   
B|--3--3--3--0------| 
G|--2--2--0--4------| 
D|--0--2--x--0------|  
A|--0--0--3--x------|           
D|--x--x--x--5------|          

[Post-chorus]
(on the last line of the chorus i like to hit this little chord that he doesnt normaly play but  
i think it sounds good. it looks like this)
 
e|--x-|
b|--3-|
g|--0-|
d|--4-|
a|--3-|
D|--x-|
 
************************************

| x  Dead note
| p  Pull-off
| h  Hammer-on 

************************************
Suggest correction
comments
print report bad tab
7 comments total. Showing first comments.
0 reply
RejectWoW 148 Nov 30, 2009 01:41 PM

As perfect as it can be. Thanks. :)

0 reply
killabananas 10 Apr 20, 2010 06:55 PM

i think the last chord he plays in the chorus is a c chord? maybe?

+3 reply
87goose 10 Jun 15, 2010 07:41 PM

good tab but i personally would tune high e to a d too and play it open...

guest
You may want to rate the tab now too:
select rating
Wanna post a correction for this tab? Suggest correction