Oops, an error
Loading. Please wait.

Dynamite Tab

version 1
version 1

Whole song

Interactive

136,266 views 33 this week
5 commentsread comments
1 2 3 4 5
excellent!
x 26
add to favorites
launch autoscroll
font size
0
reset
how to read this tab
guitar tuner
Autoscroll
slow
fast
+/-
esc
set tempo
stop
Help us to improve Ultimate-Guitar.com Take our survey!
×
Author
Difficulty
Tuning
intermediate
D G C F A D
Taio Cruz – Dynamite
Tabbed by: Alejandro Manzano of Boyce Avenue
www.YouTube.com/BoyceAvenue

Video of me playing/singing it:
http://www.youtube.com/watch?v=30WakIlloqs

Key: D
Tuning: D  A  D  F#  A  D

 X  = mute
 /  = slide up
 p  = pull of
 h  = hammer on
< > = harmonics

Acoustic Guitar #1 (rhythm acoustic)

Intro:
-----0---------------0-----------0----------------0-----|
---0-----0-----0---0-----0-----0------0-----0---0---4p0-|
-8-----8----7----7-----7--/-12-----12----5----5---------|
--------------------------------------------------------|
------------0-------------------------------------------|
-9--------------------------0------------5--------------|

-----0---------------0-----------0-------0-|
---0-----0-----0---0-----0-----0------0--0-|
-8-----8----7----7-----7--/-12-----12----5-|
-----------------------------------------0-|
------------0----------------------------x-|
-9--------------------------0------------5-|

Chorus 1:
-0----0----0----0----0----0----0----0-|
-0----0----0----0----0----0----0----0-|
-8----7----12---5----8----7----12---5-|
-0----7----0----0----0----7----0----0-|
-x----0----0----x----x----0----0----x-|
-9---------0----5----9---------0----5-|

Verse 1:
---------------------------------|
-0-0-0-0-0-0-0-0-0-0-0-0-0-0-0-0-|
-0-0-0-0-0-0-0-0-0-0-0-0-0-0-0-0-|
-4-4-4-2-2-2-2-0-4-4-0-x-x-x-x-x-|
-2-2-2-4-4-4-0-0-5-5-0-5-5-5-5-5-|
-----------------------5-5-5-5-5-|

Pre-Chorus 1:
---------------------------------|
-0-0-0-0-0-0-0-0-0-0-0-0-0-0-0-0-|
-0-0-0-0-0-0-0-0-0-0-0-0-0-0-0-0-|
-4-4-4-2-2-2-2-0-4-4-0-x-x-x-x-x-|
-2-2-2-4-4-4-0-0-5-5-0-5-5-5-5-5-|
-----------------------5-5-5-5-5-|

Chorus 2:
-0--0--0--0--0--0--0--0--0--0--0--0--0-----0-0-|
-0--0--0--0--0--0--0--0--0--0--0--0--0-----0-0-|
-8--8--7--7--12-12-5--5--8--8--7--7--12-12-5-5-|
-0--0--7--7--0--0--0--0--0--0--7--7--0--0--0-0-|
-x--x--0--0--0--0--x--x--x--x--0--0--0--0--x-x-|
-9--9--------0--0--5--5--9--9--------0--0--5-5-|

-0----0----0----0----0----0----0----0-|
-0----0----0----0----0----0----0----0-|
-8----7----12---5----8----7----12---5-|
-0----7----0----0----0----7----0----0-|
-x----0----0----x----x----0----0----x-|
-9---------0----5----9---------0----5-|

Verse 2:
---------------------------------|
---------------------------------|
---------------------------------|
-4-4-4-2-2-2-2-2-7-7-7-5-5-5-5-5-|
-2-2-2-0-0-0-0-0-5-5-5-5-5-5-5-5-|
-----------------------5-5-5-5-5-|

Pre-Chorus 2:
---------------------------------|
-0-0-0-0-0-0-0-0-0-0-0-0-0-0-0-0-|
-0-0-0-0-0-0-0-0-0-0-0-0-0-0-0-0-|
-4-4-4-2-2-2-2-0-4-4-0-x-x-x-x-x-|
-2-2-2-4-4-4-0-0-5-5-0-5-5-5-5-5-|
-----------------------5-5-5-5-5-|

Chorus 3:
-0--0--0--0--0--0--0--0--0--0--0--0--0-----0-0-|
-0--0--0--0--0--0--0--0--0--0--0--0--0-----0-0-|
-8--8--7--7--12-12-5--5--8--8--7--7--12-12-5-5-|
-0--0--7--7--0--0--0--0--0--0--7--7--0--0--0-0-|
-x--x--0--0--0--0--x--x--x--x--0--0--0--0--x-x-|
-9--9--------0--0--5--5--9--9--------0--0--5-5-|

-0----0----0----0----0----0----0----0-|
-0----0----0----0----0----0----0----0-|
-8----7----12---5----8----7----12---5-|
-0----7----0----0----0----7----0----0-|
-x----0----0----x----x----0----0----x-|
-9---------0----5----9---------0----5-|

Solo:
----0----0----0----0----0----0----0----0-|
----0----0----0----0----0----0----0----0-|
----8----7----12---5----8----7----12---5-|
----0----7----0----0----0----7----0----0-|
-x--x----0----0----x----x----0----0----x-|
-2/-9---------0----5----9---------0----5-|

Bridge:
-0--0--0--0--0--0--0--0--0--0--0--0--0-----0-0-|
-0--0--0--0--0--0--0--0--0--0--0--0--0-----0-0-|
-8--8--7--7--12-12-5--5--8--8--7--7--12-12-5-5-|
-0--0--7--7--0--0--0--0--0--0--7--7--0--0--0-0-|
-x--x--0--0--0--0--x--x--x--x--0--0--0--0--x-x-|
-9--9--------0--0--5--5--9--9--------0--0--5-5-|

-0--0--0--0--0--0--0--0--0--0--0--0--0-----0-|
-0--0--0--0--0--0--0--0--0--0--0--0--0-----0-|
-8--8--7--7--12-12-5--5--8--8--7--7--12-12-5-|
-0--0--7--7--0--0--0--0--0--0--7--7--0--0--0-|
-x--x--0--0--0--0--x--x--x--x--0--0--0--0--x-|
-9--9--------0--0--5--5--9--9--------0--0--5-|

-0----0----0----0----0----0----0----0-|
-0----0----0----0----0----0----0----0-|
-8----7----12---5----8----7----12---5-|
-0----7----0----0----0----7----0----0-|
-x----0----0----x----x----0----0----x-|
-9---------0----5----9---------0----5-|

Chorus 4:
-0----0----0----0----0----0----0----0-|
-0----0----0----0----0----0----0----0-|
-8----7----12---5----8----7----12---5-|
-0----7----0----0----0----7----0----0-|
-x----0----0----x----x----0----0----x-|
-9---------0----5----9---------0----5-|

-0----0----0----0----0----0----0----0-|
-0----0----0----0----0----0----0----0-|
-8----7----12---5----8----7----12---5-|
-0----7----0----0----0----7----0----0-|
-x----0----0----x----x----0----0----x-|
-9---------0----5----9---------0----5-|

-0-0-0-0-0-0-0-|
-0-0-0-0-0-0-0-|
-8-8-8-7-7-7-5-|
-0-0-0-7-7-7-0-|
-x-x-x-0-0-0-x-|
-9-9-9-x-x-x-5-|

Acoustic Guitar #2 (lead acoustic)

Pre-Chorus 1:
-----0-----0----------0-----0------<12>-|
---0-----0----------0-----0--------<12>-|
------------------5-----7-----8---------|
-0-----2-----7--------------------------|
----------------------------------------|
----------------------------------------|

Chorus 2:
-----------<12>---------------|
-----------<12>---------------|
-8h10-8----------------8h10-8-|
------------------------------|
------------------------------|
------------------------------|

--------0-----0----------0-----0---|
------0-----0---0------0-----0---0-|
-3/-8-----7-------/-12-----5-------|
-----------------------------------|
-----------------------------------|
-----------------------------------|

-----0-----0----------0-----0---|
---0-----0---0------0-----0---0-|
-8-----7-------/-12-----5-------|
--------------------------------|
--------------------------------|
--------------------------------|

-----0-----0----------0-----0---|
---0-----0---0------0-----0---0-|
-8-----7-------/-12-----5-------|
--------------------------------|
--------------------------------|
--------------------------------|

-----0-----0----------0---|
---0-----0---0------0-----|
-8-----7-------/-12-----5-|
--------------------------|
--------------------------|
--------------------------|

Verse 2:
-0----0----0----0----0----0----0----0-|
-0----0----0----0----0----0----0----0-|
-8----7----12---5----8----7----12---5-|
-0----7----0----0----0----7----0----0-|
-x----0----0----x----x----0----0----x-|
-9---------0----5----9---------0----5-|

Pre-Chorus 2:
-----0-----0----------0-----0------<12>-|
---0-----0----------0-----0--------<12>-|
------------------5-----7-----8---------|
-0-----2-----7--------------------------|
----------------------------------------|
----------------------------------------|

Chorus 3:
-----------<12>---------------|
-----------<12>---------------|
-8h10-8----------------8h10-8-|
------------------------------|
------------------------------|
------------------------------|

--------0-----0----------0-----0---|
------0-----0---0------0-----0---0-|
-3/-8-----7-------/-12-----5-------|
-----------------------------------|
-----------------------------------|
-----------------------------------|

-----0-----0----------0-----0---|
---0-----0---0------0-----0---0-|
-8-----7-------/-12-----5-------|
--------------------------------|
--------------------------------|
--------------------------------|

-----0-----0----------0-----0---|
---0-----0---0------0-----0---0-|
-8-----7-------/-12-----5-------|
--------------------------------|
--------------------------------|
--------------------------------|

-----0-----0----------0---|
---0-----0---0------0-----|
-8-----7-------/-12-----5-|
--------------------------|
--------------------------|
--------------------------|

Solo:
-2/4----2p0-2----0h2-2/4----2h4p2p0-2-0--------0-|
----------------------------------------2--0h2---|
-------------------------------------------------|
-------------------------------------------------|
-------------------------------------------------|
-------------------------------------------------|

-2/4--/-7------0h2-2/4----2h4p2p0-2-0-------------|
----------7---------------------------2----0-2-/5-|
--------------------------------------------------|
--------------------------------------------------|
--------------------------------------------------|
--------------------------------------------------|

Bridge:
---------7-/9-|
-7-/9---------|
--------------|
--------------|
--------------|
--------------|

-----0-----0---------0-----0-----|
---0-----0---0-----0-----0---0---|
-8-----8-------8-7-----7-------7-|
---------------------------------|
---------------------------------|
---------------------------------|

------0------0----------0-----0-----|
----0------0---0------0-----0---0---|
-12-----12-------12-5-----5-------5-|
------------------------------------|
------------------------------------|
------------------------------------|

-----0-----0---------0-----0-----|
---0-----0---0-----0-----0---0---|
-8-----8-------8-7-----7-------7-|
---------------------------------|
---------------------------------|
---------------------------------|

------0------0----------0-----0---|
----0------0---0------0-----0---0-|
-12-----12-------12-5-----5-------|
----------------------------------|
----------------------------------|
----------------------------------|

Chorus 4:
--------0-----0----------0-----0---|
------0-----0---0------0-----0---0-|
-3/-8-----7-------/-12-----5-------|
-----------------------------------|
-----------------------------------|
-----------------------------------|

-----0-----0----------0-----0---|
---0-----0---0------0-----0---0-|
-8-----7-------/-12-----5-------|
--------------------------------|
--------------------------------|
--------------------------------|

-----0-----0----------0-----0---|
---0-----0---0------0-----0---0-|
-8-----7-------/-12-----5-------|
--------------------------------|
--------------------------------|
--------------------------------|

-----0-----0----------0-----0---|
---0-----0---0------0-----0---0-|
-8-----7-------/-12-----5-------|
--------------------------------|
--------------------------------|
--------------------------------|

-----0-----0-----|
---0-----0-------|
-8-----7-----\-5-|
-----------------|
-----------------|
-----------------|
Suggest correction
comments
print report bad tab
5 comments total. Showing first comments.
+1 reply
Kuroi_Arashi 20 wrote on October 6 2010, 11:55 pm

Hey Alejandro, just thought I'd mention that you put a tone down for the tuning in the information for the song instead of the actual tuning that you've put in the tab.

And thanks a lot, best arrangement of the song I've ever heard =)!

+1 reply
ashmarsden 51 wrote on October 11 2010, 03:45 am

Alejandro man, i love all ur covers man, the arrangments are always do melodic, love it man, good work

0 reply
JoannaG 64 wrote on January 11 2011, 03:19 pm

Always so greatful for you tabbing your songs! You do such amazing covers.

guest
You may want to rate the tab now too:
select rating
Wanna post a correction for this tab? Suggest correction