Oops, an error
Loading. Please wait.

Dynamite Tab

version 2
version 2

Whole song

Interactive

20,860 views 6 this week
1 commentread comment
1 2 3 4 5
please rate
add to favorites
launch autoscroll
font size
0
reset
how to read this tab
guitar tuner
Tab Pro tools
  • play this tab
  • loop segment
  • change instrument
  • show fretboard
  • metronome
×
Best way to learn
"Dynamite"
Autoscroll
slow
fast
+/-
esc
set tempo
stop
Contributor
Difficulty
Tuning
novice
D A D F# A D
Boyce Avenue just released their acoustic cover for Dynamite.
The cover sounds quite a different style from the original but the beats
and pattern remain the same. 
Corrected for the palm muted power chord bass part!

6 Oct, 2010

Title: Dynamite
SubTitle: Acoustic Cover
Artist: Boyce Avenue
Tempo = 115

x - muted
Tuning: D A D F# a d (Open D)

Chords:
d |--0-----0----------|--0-----0----------|
a |--0-----0----------|--0-----0----------|
F#|--8-----7----------|--12----5----------|
D |--0-----0----------|--0-----0----------|
A |--x-----x----------|--x-----x----------|
D |--9-----7----------|--12----5----------|

Intro:
d |--0--------0----------------------------------------|
a |-----0-----------0----------------------------------|
F#|--------8--------------7-----------------------7----|
D |----------------------------------------------------|
A |----------------------------------------------------|
D |--9--------------------------------------------7----|

-----------0----------------|--------0--------------0-------|
--0-----0--------0----------|-----0-----------0-----0-------|
-----7--------7-------------|--12-------12----------5-------|
----------------------------|-----------------------0-------|
----------------------------|-----------------------x-------|
----------------------------|--12-------------------5-------|

Chorus:

d |--0-----0----------|--0-----0----------|
a |--0-----0----------|--0-----0----------|
F#|--8-----7----------|--12----5----------|
D |--0-----0----------|--0-----0----------|
A |--x-----x----------|--x-----x----------|
D |--9-----7----------|--12----5----------|

Power Chords Bass:
d |----------------------------|----------------------------|
a |----------------------------|----------------------------|
F#|-----------x-----x--x-------|----------------------------|
D |--0--0-----0-----0--0-------|--4-----4--------0--0-------|
A |--2--2--2--4--4--4--4--4----|--5--5--5--------5--5--5----|
D |--x--x--x--x--x--x--x--x----|--x--x--x--5--5--5--5--5----|
(from the video on youtube, it seems that he sweeps not only
on the bass strings)

----------------------------|----------------------------|
----------------------------|----------------------------|
--8--------7----------------|--12-------5----------------|
----------------------------|----------------------------|
--x--------x----------------|--x--------x----------------|
--9--------7----------------|--0--------5----------------|

Tabber: Jason Pang
jasonpeng_boy@yahoo.com.cn
t8ke.wordpress.com
comments
We did not receive enough feedback on this tab! Please rate:
print report bad tab
1 2 3 4 5
1 comment total.
0 reply
RossDavis wrote on November 28 2010, 04:22 pm

I'm not so sure about the second chord if I'm honest?

I want to post or [tab]
guest
You may want to rate the tab now too:
select rating
Please do not post tabs as comments. Select "correction" instead!