Oops, an error
Loading. Please wait.

Every Breath Tab

version 1
version 1

Acoustic

Whole song

Interactive

10,749 views 3 this week
no commentswrite comment
1 2 3 4 5
x 4
add to favorites
launch autoscroll
font size
0
reset
how to read this tab
guitar tuner
Autoscroll
slow
fast
+/-
esc
set tempo
stop
Help us to improve Ultimate-Guitar.com Take our survey!
×
Difficulty
novice
This is the Version Boyce Avenue plays Live & Acoustic at the Fort Studios.

Tuning: E A D G C D

Intro:
---------0----------0-------|
-------0----------0---------|                x 2
--------------------------0-|
-----7----------7-------7---|
---0----------0-------0-----|
----------------------------|

Interlude:
--0----0----0^2^0----0------|
--0----0----0-0-0----0------|                 x 2
--0----0----0-0-0----2------|
--3----2----0-0-0----2------|
--3----3----x-x-x----0------|
------------3-3-3-----------|

Verse(muted):

--0----0----0----0---|                        x 4
--0----0----0----0---|
--0----0----0----2---|
--3----2----0----2---|
--3----3----x----0---|
------------3--------|

End of Verse:
----------0---|
-----0---0----|
----2---------|
---2----2-----|
--0----0------|
--------------|

Chorus:
---0----0----0--0--0-0-0-0---|
---0----2----0--0--0-0-0-2---|
---0----0----2--0--0-0-2-0---|
---2----x----2--0--3-2-2-x---|
---3----2----0--x--3-3-0-2---|
--------0-------3--------0---|

Interlude

Verse (muted)

Chorus

Bridge:
--0----0----0----0------0----0----0----|
--0----0----0-----0-----0----0----0----|
--0----0----2------0----0----0----0----|
--3----0----2-------0---0----3----0----|
--3----x----0--------x--x----3----x----|
-------3--------------3-3---------3----|

Chorus (crescendo)

Chorus

Interlude x 2

End on  -0-
        -0-
        -0-
        -3-
        -3-
        ---
Suggest correction
comments
print report bad tab
guest
You may want to rate the tab now too:
select rating
Wanna post a correction for this tab? Suggest correction