Oops, an error
Loading. Please wait.

Every Breath Chords

version 2
version 2

Whole song

Interactive

13,199 views 3 this week
no commentswrite comment
1 2 3 4 5
please rate
add to favorites
launch autoscroll
font size
0
reset
transpose
0
reset
simplify chords
display chords
guitar tuner
Tab Pro tools
  • play this tab
  • loop segment
  • change instrument
  • show fretboard
  • metronome
×
Best way to learn
"Every Breath"
Autoscroll
slow
fast
+/-
esc
set tempo
stop
Difficulty
Tuning
intermediate
C G C F A D
Every Breath – Boyce Avenue  (tab by maxi Caniffi)


Intro
Tuning : E A D G C C    (drop C )

|-----------------------------------------------------------------|
|----------0-------------------0----------------------------------|
|--------------7-------------------7-------------0----------------|
|------7-------------------7-----------------7--------------------|
|--0-------------------0-----------------0------------------------|
|-----------------------------------------------------------------|

|-----------------------------------------------------------------|
|----------0-------------------0----------------------------------|
|--------------7-------------------7-------------0----------------|
|------7-------------------7-----------------7--------------------|
|--0-------------------0-----------------0------------------------|
|-----------------------------------------------------------------|

  F9        C/E      G/D      Am     B/D
|-0--|      |-0--|      |-2--|   |-0--|    |-2--|
|-0--|      |-0--|      |-0--|   |-0--|    |-0--|
|-0--|      |-0--|      |-0--|   |-2--|    |-0--|
|-3--|      |-2--|      |-0--|   |-2--|    |-0--|
|-3--|      |-3--|      |-0--|   |-0--|    |-2--|
|-0--|      |-0--|      |-3--|   |-x--|    |-x--|

Intro chord : F9 C/E G/D Am  x2
 F9       C/E                                 G/D                Am
 It sounds like this is nothing new and that it hasn't been for awhile
F9        C/E                  G/D                    Am
 You wake up on the other side and you strain to force a smile
F9        C/E                  G/D                         Am
The fairytale inside your head has become your new best friend
F9            C/E                        G/D               Am
But I can assure you, that I'll be there before the story ends
C/E
'Cause when I needed a place to hang my heart
B/D                                  Am
You were there to wear it from the start
 C/E       B/D              Am         C/E    B/D        F9
And with every breath of me, you'll be the only light I see
( F9 C/E G/D Am  )

I'm racing the finish line of a lifetime thats barely started
The piece of mind I left behind, I pray you keep in your perfect garden
You're waiting on a minute hand in a countdown that lasts for days
But I'm here to tell you, it won't be long before I'm here to start
'Cause when I needed a place to hang my heart
You were there to wear it from the start
And with every breath of me, you'll be the only light I see
( F9 C/E G/D Am  )

 F9           C/E
The weightlessness and the lack of rest
  G/D                       Am
away from you, im in over my head

C/E
Even when it’s dark before the dawn
B/D                             Am
will feel your grace and carry on
C/E       B/D            Am             C/E   B/D       F9
And with every breath of me, you'll be the only light I see

When I needed a place to hang my heart
You were there to wear it from the start
And with every breath of me, you'll be the only light I se
Even when it's dark before the dawn
I will feel your grace and carry on
And with every breath of me, you'll be the only light I see
The only light I see
comments
We did not receive enough feedback on this tab! Please rate:
print report bad tab
1 2 3 4 5
I want to post or [tab]
guest
You may want to rate the tab now too:
select rating
Please do not post tabs as comments. Select "correction" instead!