Oops, an error
Loading. Please wait.

Every Breath Tab

version 3
version 3

Whole song

Interactive

9,891 views 1 this week
no commentswrite comment
1 2 3 4 5
excellent!
x 4
add to favorites
launch autoscroll
font size
0
reset
how to read this tab
guitar tuner
Autoscroll
slow
fast
+/-
esc
set tempo
stop
Help us to improve Ultimate-Guitar.com Take our survey!
×
Contributor
Difficulty
novice
Boyce Avenue – Every Breath
(http://www.youtube.com/watch?v=kETDjepCwYg)

Tabbed by: Esperance

Tuning: E A D G C C

x = mute
/ = slide
^ = hammer on or pull off

Guitar 1: (Alejandro)

Intro: (play 2x)
----------------|
---0-----0------|
----7-----7---0-|     
--7-----7----7--|  
-0-----0----0---|
----------------|

Interlude: (play 2x)
-0---0---0^2^0---0-|
-0---0---0-0-0---0-|
-0---0---0-0-0---2-| 
-3---2---0-0-0---2-|
-3---3---x-x-x---0-|
---------3-3-3-----|

Verse 1 and 2: (palm mute)(play 3x)
-0---0---0---0-|
-0---0---0---0-|
-0---0---0---2-|
-3---2---0---2-|
-3---3---x---0-|
---------3-----|

-0---0---0-------------|
-0---0---0-----0-----0-|
-0---0---0------0---0--|
-3---2---0----2--------|
-3---3---x---0-----2---|
---------3-------------|

Chorus 1 and 2:
-0---0---0---0---0---0-0-|
-0---2---0---0---0---0-2-|
-0---0---2---0---0---2-0-|
-2---0---2---0---3---2-0-|
-3---2---0---x---3---0-2-|
-------------3-----------|

Bridge:
-0---0---0--------0-0---0---0-|
-0---0---0-------0--0---0---0-|
-0---0---2------0---0---0---0-|
-3---0---2-----0----0---3---0-|
-3---x---0----x-----x---3---x-|
-----3-------3------3-------3-|

(palm mute)
-0---0---0---0---0---0-0-|
-0---2---0---0---0---0-2-|
-2---0---2---0---0---2-0-|
-2---x---2---0---3---2-x-|
-0---2---0---x---3---0-2-|
-------------3-----------|

Chorus 3: (play 2x)
-0---0---0---0---0---0-0-|
-0---2---0---0---0---0-2-|
-0---0---2---0---0---2-0-|
-2---0---2---0---3---2-0-|
-3---2---0---x---3---0-2-|
-------------3-----------|

Outro: (play 2x)
-0---0---0^2^0---0-|
-0---0---0-0-0---0-|
-0---0---0-0-0---2-| 
-3---2---0-0-0---2-|
-3---3---x-x-x---0-|
---------3-3-3-----|

ends on: -0-|
         -0-|
         -0-|
         -3-|
         -3-| 
         ---|


Progression: 
Intro,Interlude,Verse 1,Chorus 1,Interlude(play 1x),Verse 2,Chorus 2,Bridge,Chorus 3,Outro 
comments
print report bad tab
I want to post or [tab]
guest
You may want to rate the tab now too:
select rating
Please do not post tabs as comments. Select "correction" instead!