Oops, an error
Loading. Please wait.

Every Teardrop Is A Waterfall Tab

version 2
version 2

Whole song

Interactive

78,481 views 90 this week
7 commentsread comments
1 2 3 4 5
accurate
x 31
add to favorites
launch autoscroll
font size
0
reset
how to read this tab
guitar tuner
Tab Pro tools
  • play this tab
  • loop segment
  • change instrument
  • show fretboard
  • metronome
Autoscroll
slow
fast
+/-
esc
set tempo
stop
Contributor
Difficulty
intermediate
Tabbed by Snype26 (@MJHerring26)
Questions/Comments to mherring26@gmail.com

Tuning (Low to High) is DADEAe


Intro (x2)
 e|-----0-------0-0-0-0-0-0-0-0---0-0-0-0-0-0-0-0----------------------|
 A|-----0-------0-0-0-0-0-0-0-0---0-0-0-0-0-0-0-0----------------------|
 E|-----0-------5-5-4-4-5-5-4-4---7-7-5-5-7-7-5-5----------------------|
 D|-----0-------0-0-0-0-0-0-0-0---x-x-x-x-x-x-x-x----------------------|
 A|-----5-------5-5-5-5-5-5-5-5---4-4-4-4-4-4-4-4----------------------|
 D|-----0--------------------------------------------------------------|

Verse (x2)
 e|---0-0-0-0--0-0-0-0---0-0--0-0----0-0--0-0---0-0-0-0---0-0-0--------|
 A|---0-0-0-0--0-0-0-0---0-0--0-0----0-0--0-0---0-0-0-0--121112--------|
 E|---5-4-7-5--5-4-7-5--1210-1210----0-0--0-0---4-5-4-5--121212--------|
 D|---0-0-0-0--x-x-x-x---0-0--0-0---1211-1211---4-4-4-4---0-0-0--------|
 A|---5-5-4-4--5-5-4-4--12-9-12-9----0-0--0-0---x-x-x-x---0-0-0--------|
 D|----------------------0-0--0-0---1211-1211---4-4-4-4---0-0-0--------|

 Interlude (x2)
 e|-----0-0--0-0---0-0-0-0-------------------------------------|
 A|-----0-0--0-0---0-0-0-0-------------------------------------|
 E|----10-9-10-9---7-9-7-9-------------------------------------|
 D|-----9-7--9-7---0-0-0-0-------------------------------------|
 A|-----0-0--0-0---7-9-7-9-------------------------------------|
 D|-----0-0--0-0---0-0-0-0-------------------------------------|

Verse (x2)
 e|-----0-0-0-0---0-0-0-0---0-0--0-0----0-0--0-0---0-0-0-0---0-0-0--------|
 A|-----0-0-0-0---0-0-0-0---0-0--0-0----0-0--0-0---0-0-0-0--121112--------|
 E|-----5-4-7-5---5-4-7-5--1210-1210----0-0--0-0---4-5-4-5--121212--------|
 D|-----0-0-0-0---x-x-x-x---0-0--0-0---1211-1211---4-4-4-4---0-0-0--------|
 A|-----5-5-4-4---5-5-4-4--12-9-12-9----0-0--0-0---x-x-x-x---0-0-0--------|
 D|-------------------------0-0--0-0---1211-1211---4-4-4-4---0-0-0--------|

Chorus (x2)
 e|-----0-0--0-0---0-0--0-0---00-00---0-0-0-----------|
 A|-----0-0--0-0---0-0--0-0---00-00--121112-----------|
 E|----1210-1210---0-0--0-0---45-45--121212-----------|
 D|-----0-0--0-0--1211-1211---44-44---0-0-0-----------|
 A|----12-9-12-9---0-0--0-0---xx-xx---0-0-0-----------|
 D|-----0-0--0-0--1211-1211---44-44---0-0-0-----------|

Interlude (x2)
 e|-----0-0--0-0---0-0-0-0--------------------------------|
 A|-----0-0--0-0---0-0-0-0--------------------------------|
 E|----10-9-10-9---7-9-7-9--------------------------------|
 D|-----9-7--9-7---0-0-0-0--------------------------------|
 A|-----0-0--0-0---7-9-7-9--------------------------------|
 D|-----0-0--0-0---0-0-0-0--------------------------------|

Bridge
 e|-----0-0--0-0--0-0--0-0-------------------------------------------------|
 A|-----0-0--0-0--0-0--0-0-------------------------------------------------|
 E|-----0-0--5-5--0-0--5-5-------------------------------------------------|
 D|-----6-6--0-0--2-2--0-0-------------------------------------------------|
 A|-----7-7--5-5--4-4--5-5-------------------------------------------------|
 D|----------0-0--0-0--0-0-------------------------------------------------|

Interlude (x2)
 e|-----0-0--0-0----0-0-0-0------------------------------------------------|
 A|-----0-0--0-0----0-0-0-0------------------------------------------------|
 E|----10-9-10-9----7-9-7-9------------------------------------------------|
 D|-----9-7--9-7----0-0-0-0------------------------------------------------|
 A|-----0-0--0-0----7-9-7-9------------------------------------------------|
 D|-----0-0--0-0----0-0-0-0------------------------------------------------|  

Outro                             End on
 e|-----0-0--0-0-----0-0--0-0--------0-----------------------------------|
 A|----1211-1211-----0-0--0-0--------0-----------------------------------|
 E|----1212-1212----10-9-10-9--------9-----------------------------------|
 D|-----0-0--0-0-----9-7--9-7--------7-----------------------------------|
 A|-----0-0--0-0-----0-0--0-0--------0-----------------------------------|
 D|-----0-0--0-0-----0-0--0-0--------0-----------------------------------|
comments
print report bad tab
7 comments total. Showing first comments.
0 reply
RejectWoW wrote on July 18 2011, 11:38 am

This is a bit more understandable than the previous version, plus it sounds excellent. :)

0 reply
ethanwhufc wrote on August 5 2011, 08:37 am

this is amazing cant stop playing along, 5 stars.

-1 reply
Alexmusick wrote on August 21 2011, 11:21 pm

sorry for being picky, but it looks messy if there isn't a - in between each different chord :s besides that, purely amazing tab man, thanks a lot

I want to post or [tab]
guest
You may want to rate the tab now too:
select rating
Please do not post tabs as comments. Select "correction" instead!