Oops, an error
Loading. Please wait.

Fast Car Tab

version 2
version 2

Whole song

58,131 views 192 this week
4 commentsread comments
1 2 3 4 5
accurate
x 10
add to favorites
launch autoscroll
font size
0
reset
how to read this tab
guitar tuner
Autoscroll
slow
fast
+/-
esc
set tempo
stop
Help us to improve Ultimate-Guitar.com Take our survey!
×
Author
Difficulty
Capo
novice
3rd fret
Chords:
C: x32010
G: 320033
Cadd9: x32033
D: xx0232


[Riff]

e|--------------------------------------------------------|
B|------0h1p0----3----3--------8--------8------8----------|
G|--------------------------------------------------------|
D|--------------------------------------------------------|
A|------3----------------------7--------5------5----------|
E|---------------3----3-----------------------------------|

turn around thingy
e|---------------------------------------------------------------|
B|------0h1p0----3-----3--------8----9----8-----7----8----7------|
G|---------------------------------------------------------------|
D|----------------------------------------------0----------------|
A|------3-----------------------7--------------------------------|
E|---------------3-----3-----------------------------------------|


[Chorus]

                       C
See i remember we were driving
 (C) 
driving in your car
 G
speed so fast i felt like i was drunk
 Cadd9
city lights lay out before us 
         D
and your arm felt nice wrapped round my shoulder and
Cadd9      G
i-i had a feeling that i belonged
    Cadd9      G
and i-i had a feeling i could be someone
 Cadd9       G
be someone, be someone



************************************

| h  Hammer-on
| p  Pull-off

************************************
Suggest correction
comments
print report bad tab
4 comments total. Showing first comments.
0 reply
ArnoldSwartz 10 wrote on March 12 2013, 12:41 am

RIFF;
e|--------------------------------------------------------|
B|------0h1p0----3----3--------8--------7------7----------|
G|--------------------------------------------------------|
D|--------------------------------------------------------|
A|------3----------------------7--------5------5----------|
E|---------------3----3-----------------------------------|

0 reply
MajorSnowball 10 wrote on August 22 2013, 08:54 am

TURN AROUND THINGY;
e|---------------------------------------------------------------|
B|------0h1p0----3-----3--------8----10---8-----7----8----7------|
G|---------------------------------------------------------------|
D|----------------------------------------------0----------------|
A|------3-----------------------7--------------------------------|
E|---------------3-----3-----------------------------------------|

0 reply
MajorSnowball 10 wrote on August 22 2013, 08:54 am

TURN AROUND THINGY (fixed);
e|---------------------------------------------------------------|
B|------0h1p0----3-----3--------8----10---8-----7----8----7------|
G|---------------------------------------------------------------|
D|----------------------------------------------0----------------|
A|------3-----------------------7--------------------------------|
E|---------------3-----3-----------------------------------------|

guest
You may want to rate the tab now too:
select rating
Wanna post a correction for this tab? Suggest correction