Oops, an error
Loading. Please wait.

Find Me Chords

version 1
version 1

Whole song

Interactive

63,943 views 36 this week
1 commentread comment
1 2 3 4 5
accurate
x 10
add to favorites
launch autoscroll
font size
0
reset
transpose
0
reset
display chords
guitar tuner
Autoscroll
slow
fast
+/-
esc
set tempo
stop
Help us to improve Ultimate-Guitar.com Take our survey!
×
Author
Boyce Avenue
Find Me
Submitted by: paramore_fans@yahoo.com

Key: F#

Tuning: Standard EADGBe

Chords used:
B -     x24442
F# -    244322
C# -    x46664
Ebm -   x68876
C#/F -  143xxx
G#m -   466444
F#/Bb - x143xx


Intro: 
x2

Guitar 1:
       B             F#             C#           Ebm
e|-------------|-------------|-------------|-------------|
B|-------2-----|-------2-----|-------2-----|-------2-----|
G|-----3---3---|-----3---3---|-----3---3---|-----3---3---|
D|---4-------4-|---4-------4-|---4-------4-|-1-4-------4-|
A|-2-----------|-------------|-4-----------|-------------|
E|-------------|-2-----------|-------------|-------------|

       B             F#            C#
e|-------------|-------------|-------------|
B|-------2-----|-------2-----|-------2-----|
G|-----3---3---|-----3---3---|-----3---3---|
D|---4-------4-|---4-------4-|---4-------4-|
A|-2-----------|-------------|-4-----------|
E|-------------|-2-----------|-------------|
                                   x2

       B             F#             C#           Ebm
e|-------------|-------------|-------------|-------------|
B|-------2-----|-------2-----|-------2-----|-------2-----|
G|-----3---3---|-----3---3---|-----3---3---|-----3---3---|
D|---4-------4-|---4-------4-|---4-------4-|-1-4-------4-|
A|-2-----------|-------------|-4-----------|-------------|
E|-------------|-2-----------|-------------|-------------|

       B             F#             C#
e|-------------|-------------|---------------|
B|-------2-----|-------2-----|-------2-------|
G|-----3---3---|-----3---3---|-----3---3-----|
D|---4-------4-|---4-------4-|---4-------4---|
A|-2-----------|-------------|-4-----------4-|
E|-------------|-2-----------|---------------|


Guitar 2:
   B   F#  C#   Ebm   B    F#     C#
e|---|---|-2-|-1----|---|------|------|
B|-2-|---|---|------|-2-|------|------|
G|---|---|---|----3-|---|--4p3-|-1--3-|
D|---|---|---|------|---|------|------|
A|---|---|---|------|---|------|------|
E|---|---|---|------|---|------|------|

   B   F#    C#      Ebm   B    F# 
 C#
e|---|---|-2--2h4-|-1----|---|------|---|
B|-2-|---|--------|------|-2-|------|---|
G|---|---|--------|----3-|---|--4-3-|-1-|
D|---|---|--------|------|---|------|---|
A|---|---|--------|------|---|------|---|
E|---|---|--------|------|---|------|---|


Verse 1:
B         F#
  So many nights
          C#     Ebm
trying to hide it
B            F#
  But now I stay awake
     C#
just pleading for more
B               F#
  To think this heart
      C#   Ebm
was divided
B             F#
  I’m losing sleep
      C#
cause I can’t ignore


Refrain 1:
B
Feeling your
F#
touch all
 C#   Ebm
around
B
Peacefully
F#
hearing
    C#
the sound
   B
Of silence
 F#
around us
C#
so glad we
Ebm
found us
     B   C#
this way hey


Chorus 1:
Ebm  C# B
Find me here in
     F#
your arms
        Ebm
Now I’m wondering
      C#            B
where you’ve always been
Ebm  C# B         F#
Blindly I came to you
        Ebm
Knowing you’d breathe
    C#          B   C#(hold)
new life from within


Post Chorus:
B F#  C#
    I Can’t get
 Ebm      B  F# C#
enough of you


Verse 2:
B           F#
  I want to be
          C# Ebm
where you are
B             F#
  In times of need
       C#
I just want
you to stay
B           F#
  I leave a note
        C# Ebm
on your car
B        F#
  When I can’t
         C#
find the right
words to say


Refrain 2:
B
Hearing your
F#         C#   Ebm
voice all around
    B
The last place
      F#       C#
we’re going is down
B            F#
I’ll blindly follow
C#
knowing you’re
Ebm         B   C#
leading the way hey


Chorus 2:
Ebm  C# B
Find me here in
     F#
your arms
        Ebm
Now I’m wondering
      C#            B
where you’ve always been
Ebm  C# B         F#
Blindly I came to you
        Ebm
Knowing you’d breathe
    C#          B
new life from within


Interlude: Ebm--C#(Bass solo)


Bridge:
Ebm               C#/F
  With you in time
F#                    G#m
  There’s nothing else
Ebm                   C#/F
  My life stands still
F#
  You are the will
G#m    F#/Bb     B    C#
  that makes me strong
         B    C#
Make me strong
   B
If ever alone in this
C#
world I know I’ll always


(Repeat Chorus 2)


Chorus 3:
Ebm  C#   B
You sleep here in
      F#
in my arms
         Ebm
When the world just
      C#         B
shuts down for a while
Ebm  C# B           F#
Blindly you came to me
        Ebm
finding peace and
  C#           B
belief is this mountain
          Ebm
find some peace and
  C#           B
belief is this mountain
          Ebm
find some peace and
  C#           B       C#(hold)
belief is this mountain


Outro:
B F#  C#
    I Can’t get
 Ebm      B  F# C#
enough of you
Suggest correction
What's this?
You can suggest a correction to this tab. Community and Mods will review your correction and vote to approve or reject it.
comments
print report bad tab
1 comment total.
0 reply
ImChannie 13 wrote on June 2 2012, 12:29 pm

Clear detail here, thank you

guest
You may want to rate the tab now too:
select rating
Please do not post tabs as comments. Select "correction" instead!