Oops, an error
Loading. Please wait.

Find Me Tab

version 2
version 2

Whole song

Interactive

10,230 views 1 this week
no commentswrite comment
1 2 3 4 5
accurate
x 3
add to favorites
launch autoscroll
font size
0
reset
how to read this tab
guitar tuner
Autoscroll
slow
fast
+/-
esc
set tempo
stop
Help us to improve Ultimate-Guitar.com Take our survey!
×
Author
Difficulty
novice
Find me

Tabbed by:Matheus Dutra

www.myspace.com/dutramoraes

Boyce Avenue playing find me:http://www.youtube.com/watch?v=CBJ2TRkj_ms

My arrangement:

Intro/pre-chorus:

e-------------------------------------------------------------------|
B---------3-----------3-------------3---------------3---------------|
G------0----0-------0---0---------0----0---------0----0-------------|
D----0--------0---0-------0----4---------4----4---------4-----------|   4x
A--3-------------------------5-------------0------------------------|
E---------------3---------------------------------------------------|

Verse 1 and 2:

e-------------------------------------------------------|
B--------3------3------3------3-------------------------|
G------0------0------0------0-------4-2-0---------------|
D----0------0------4------4---------------4-2-0---------|
A--3-------------5------0-------------------------------|
E---------3---------------------------------------------|

Chorus:

e--3--2--3--3---3--2--3--------|
B--3--3--3--3---3--3--3--------|
G--0--2--0--0---0--2--0--------|  4x
D--2--0--2--0---2--0--2--------|
A--2-----3--2---2-----3--------|
E-----------3------------------|

e---2-----|
B---3-----|
G---2-----|
D---0-----|
A---------|
E---------|

Turnaround:

e-------------------------------------------------------------------|
B---------3-----------3-------------3---------------3---------------|
G------0----0-------0---0---------0----0---------0----0-------------|
D----0--------0---0-------0----4---------4----4---------4-----------|
A--3-------------------------5-------------0------------------------|
E---------------3---------------------------------------------------|

Bridge:

e-------------------------|
B---------3---------------|
G-------0----0------------|  3x
D----4---------4----------|
A-------------------------|
E--2----------------------|

e--------------------------|
B--------------------------|
G-----4-2-0----------------|
D-----------4-2-0----------|
A--------------------------|
E--2-----------------------|

e---------------------------------------------------------|
B----3------3------3------3------3------3------3------3---|
G---0-0----0-0----0-0----0-0----0-0----0-0----0-0----0-0--|
D--4---4--4---4--4---4--4---4--4---4--4---4--4---4--4---4-|
A-------------------------------------------0------2------|
E-2------2------2------4------5------5--------------------|

e---------------------------------------------------------|
B----3------3------3------3------3------3------3------3---|
G---0-0----0-0----0-0----0-0----0-0----0-0----0-0----0-0--|
D--4---4--4---4--4---4--4---4--4---4--4---4--4---4--4---4-|
A-------------------------------------------0------2------|
E-2------2------2------4------5------5--------------------|

e--3--2-------|
B--3--3-------|
G--0--2-------|
D--2--0-------|    make me strong...
A--2----------|    make me srong....
E-------------|

e--<12>-----------|
B--<12>-----------|
G--<12>-----------|
D-----------------|
A-----------------|
E-----------------|

Last chorus:

e--3--2--3--3---3--2--3--------|
B--3--3--3--3---3--3--3--------|
G--0--2--0--0---0--2--0--------|
D--2--0--2--0---2--0--2--------|
A--2-----3--2---2-----3--------|
E-----------3------------------|

e---2-----|
B---3-----|
G---2-----|
D---0-----|
A---------|
E---------|

Final:

e-------------------------------------------------------------------|
B---------3-----------3-------------3---------------3---------------|
G------0----0-------0---0---------0----0---------0----0-------------|
D----0--------0---0-------0----4---------4----4---------4-----------|
A--3-------------------------5-------------0------------------------|
E---------------3---------------------------------------------------|

Intro acoustic 2:

e------------------------------------------------------------------|
B--3--7--8--0--3--7^6--0---0--3--7--9--6--0--3--7^6--3-------------|
G------------------------------------------------------------------|
D------------------------------------------------------------------|
A------------------------------------------------------------------|
E------------------------------------------------------------------|

This is my version of find me with normal tuning.

Enjoy the tab :)!!!!!
Suggest correction
What's this?
You can suggest a correction to this tab. Community and Mods will review your correction and vote to approve or reject it.
comments
We did not receive enough feedback on this tab! Please rate:
print report bad tab
1 2 3 4 5
guest
You may want to rate the tab now too:
select rating
Please do not post tabs as comments. Select "correction" instead!