Oops, an error
Loading. Please wait.

Firework Tab

version 1
version 1

Whole song

39,087 views 12 this week
6 commentsread comments
1 2 3 4 5
accurate
x 6
add to favorites
launch autoscroll
font size
0
reset
how to read this tab
guitar tuner
Autoscroll
slow
fast
+/-
esc
set tempo
stop
Help us to improve Ultimate-Guitar.com Take our survey!
×
Author
Difficulty
novice
Hey! yo. This is my very very first tab! 
Kinapa ko lang po ito :)
BTW. Im crisel, I'm not so sure, sure with this but I hope its Okay. HAHA!
Comments & Suggestions are allowed :P :D
I hope you'll appreciate it. Enjoy! So, here it is... :)


Standard Tunning

Intro:

e|------------------------------------------------|
B|---2/4---2--5--4----2---2/4--2--5--4-----2---2/4|
G|-----------------4-------------------4----------|
D|------------------------------------------------|
A|------------------------------------------------|
D|------------------------------------------------|


Verse 1:

Do you ever feel like a plastic bag,
drifting through the wind
wanting to start again?
Do you ever feel, feel so paper thin
like a house of cards,
one blow from caving in?

Do you ever feel already buried deep?
6 feet under screams but no one seems to hear a thing
Do you know that there`s still a chance for you
Cause there`s a spark in you
e|------------------------------------------------|
B|---2-----5--4--2--------------------------------|
G|------4-----------------------------------------|
D|------------------------------------------------|
A|------------------------------------------------|
D|------------------------------------------------|

Refrain:

You just gotta ignite, the light, and let it shine
Just own the night like the 4th of July
e|------------------------------------------------|
B|---2-----5--4--2--------------------------------|
G|------4-----------------------------------------|
D|------------------------------------------------|
A|------------------------------------------------|
D|------------------------------------------------|

CHORUS:
`Cause baby you`re a firework
Come on, show `em what you`re worth
Make `em go Oh, oh, oh
As you shoot across the sky-y-y

Baby, you`re a firework
Come on, let your colors burst
Make `em go Oh, oh, oh
You`re gonna leave `em all in awe, awe, awe

oh… You`re gonna leave `em all in awe, awe, awe
e|------------------------------------------------|
B|---77754455-------------------------------------|
G|------------------------------------------------|
D|------------------------------------------------|
A|------------------------------------------------|
D|------------------------------------------------|


e|------------------------------------------------|
B|---2/4---2--5--4----2---2/4--2--5--4-----2---2/4|
G|-----------------4-------------------4----------|
D|------------------------------------------------|
A|------------------------------------------------|
D|------------------------------------------------|


Verse 2:

You don`t have to feel like a waste of space
You`re original, cannot be replaced
If you only knew what the future holds
After a hurricane comes a rainbow

Maybe your reason why all the doors are closed
So you could open one that leads you to the perfect road
Like a lightning bolt, your heart will glow
And when it`s time, you`ll know

Refrain:

You just gotta ignite, the light, and let it shine
Just own the night like the 4th of July
e|------------------------------------------------|
B|---2-----5--4--2--------------------------------|
G|------4-----------------------------------------|
D|------------------------------------------------|
A|------------------------------------------------|
D|------------------------------------------------|

CHORUS:
`Cause baby you`re a firework
Come on, show `em what you`re worth
Make `em go Oh, oh, oh
As you shoot across the sky-y-y

Baby, you`re a firework
Come on, let your colors burst
Make `em go Oh, oh, oh
You`re gonna leave `em all in awe, awe, awe
e|------------------------------------------------|
B|---77754455-------------------------------------|
G|------------------------------------------------|
D|------------------------------------------------|
A|------------------------------------------------|
D|------------------------------------------------|


Bridge:

Don`t let them to take your life for granted
you`re the only one who needs to rule your world
When life leaves you feel empty-handed
Lie low and show `em what you`re worth
e|------------------------------------------------|
B|---77754455-------------------------------------|
G|------------------------------------------------|
D|------------------------------------------------|
A|------------------------------------------------|
D|------------------------------------------------|


Chorus:

`Cause baby you`re a firework
Come on, show `em what you`re worth
Make `em go Oh, Oh, Oh
As you shoot across the sky-y-y

Baby, you`re a firework
Come on, let your colors burst
Make `em go Oh, Oh, Oh
You`re gonna leave `em all in awe, awe, awe
e|------------------------------------------------|
B|---77754455-------------------------------------|
G|------------------------------------------------|
D|------------------------------------------------|
A|------------------------------------------------|
D|------------------------------------------------|


oh… You`re gonna leave `em all in awe, awe, awe
`Cause baby you`re a firework
e|------------------------------------------------|
B|---2/4---2--5--4----2---2/4--2--5--4-----2---2/4|
G|-----------------4-------------------4----------|
D|------------------------------------------------|
A|------------------------------------------------|
D|------------------------------------------------|





***END***


yey! you made it :)
HAHA!
you survived my tab XD congrats!




imissyou :|
Suggest correction
What's this?
You can suggest a correction to this tab. Community and Mods will review your correction and vote to approve or reject it.
comments
print report bad tab
6 comments total. Showing first comments.
0 reply
nonitus 98 wrote on January 23 2011, 11:46 pm

why do you tune it that way if you dont use the low e string?

0 reply
ethicsdesign 11 wrote on January 26 2011, 06:22 pm

I see what you mean @nonitus. It says standard tuning...then it has D as the low E string...I think its just a typo?

0 reply
isprikitik 93 wrote on January 27 2011, 08:09 am

@nonitus & @ ethicsdesign, it was a typo. sorry, and thank you ^_^

its my first tab btw, so i wish you could consider my mistake :)

guest
You may want to rate the tab now too:
select rating
Please do not post tabs as comments. Select "correction" instead!