Oops, an error
Loading. Please wait.

Fix You Tab

version 3
version 3

Whole song

Interactive

37,660 views 27 this week
no commentswrite comment
1 2 3 4 5
x 8
add to favorites
×
Save as Personal and add changes to this tab that will be seen only by you. Learn more ›
×
You can save this tab as Personal to edit and correct it or add notes. All changes will be seen only by you. Learn more »
save as personal
new!
launch autoscroll
font size
0
reset
how to read this tab
guitar tuner
Autoscroll
slow
fast
+/-
esc
set tempo
stop
Author
[Intro]
e|-----------------------------------|
B|------4-------3-------4-------3----|
G|----0---0---0---0---0---0---0---0--|
D|--1-------0------------------------|
A|------------------3--------1-------|
E|-----------------------------------|

[Verse 1]
When you try your best, but you don't succeed
When you get what you want, but not what you need
When you feel so tired, but you can't sleep
Stuck in reverse

[Verse 2]
And the tears come streaming down your face
When you lose something you can't replace
When you love someone, but it goes to waste
Could it be worse?

[Chorus]
G#               A#         G#
     Lights will guide you home
      A#         G#
And ignite your bones
            A#
And I will try to fix you

[Verse 3]
And high up above or down below
When you're too in love to let it go
But if you never try you'll never know
Just what you're worth

[Chorus]
Lights will guide you home
And ignite your bones
And I will try to fix you
 
[bridge part 1]
e|-------------------------6-6-6-6-------------------------6-6-6-6-|
B|-4-4-4-4-4-4-4-4-4-4-4-4---------4-4-4-4-4-4-4-4-4-4-4-4---------|
G|-----------------------------------------------------------------|
D|-----------------------------------------------------------------|
A|-----------------------------------------------------------------|
E|-----------------------------------------------------------------|

e|-------------------------6-6-6-6---------------------------------|
B|-4-4-4-4-4-4-4-4-4-4-4-4---------4-4-4-3-3-3-3-3-3-3-3-3-3-3-3-3-|
G|-----------------------------------------------------------------|
D|-----------------------------------------------------------------|
A|-----------------------------------------------------------------|
E|-----------------------------------------------------------------|

[bridge part 2]
e|---6---6---6---6---6---6---6---6---4---4---4---4---4---4---4---4-|
B|-4---4---4---4---4---4---4---4---4---4---4---4---4---4---4---4---|
G|-----------------------------------------------------------------|
D|-----------------------------------------------------------------|
A|-----------------------------------------------------------------|
E|-----------------------------------------------------------------|
                  Tears stream               down on your face...
e|---3---3---3---3---3---3---3---3---6---6---6---6---6---6---6---6-|
B|-4---4---4---4---4---4---4---4---3---3---3---3---3---3---3---3---|
G|-----------------------------------------------------------------|
D|-----------------------------------------------------------------|
A|-----------------------------------------------------------------|
E|-----------------------------------------------------------------|
             When you lose something you     cannot replace
Tears stream down on your face
And I...
 
Tears stream down on your face
I promise you I will learn from my mistakes
Tears stream down on your face
And I...
 
[Chorus]
Lights will guide you home
And ignite your bones
And I will try to fix you 
Suggest correction
comments
print report bad tab
guest
You may want to rate the tab now too:
select rating
Wanna post a correction for this tab? Suggest correction