Oops, an error
Loading. Please wait.

For The First Time Tab

32,487 views 1 this week
5 commentsread comments
1 2 3 4 5
x 11
add to favorites
launch autoscroll
font size
0
reset
how to read this tab
guitar tuner
Autoscroll
slow
fast
+/-
esc
set tempo
stop
Help us to improve Ultimate-Guitar.com Take our survey!
×
Author
Boyce Avenue – For The First Time (The Script Cover)
http://www.youtube.com/watch?v=341vSMO5ISU

Tabbed by: Esperance

Support Boyce Avenue - Those guys really know how to make great music!

If you have any corrections/suggestions please drop me a line and feel free to rate this tab :)
>Florian-Le@live.de<

Tuning:
Standard(EADGBe)

x=mute
*=slap
@=He doesn't play that

>>I added a few little things<<

Chords:
  G    Dsus/F#  Em7    Cadd9
|-3------3------3------3------|
|-3------3------3------3------|
|-0------2------0------0------|
|-0------0------2------2------|
|-x------0------2------3------|
|-3------2------0-------------|


Intro:
|-3------3------3------3------|
|-3------3------3------3------|
|-0------2------0------0------|
|-0------0------2------2------|
|-x------0------2------3------|
|-3------2------0-------------|

Verse 1:
-----------------------------|
-3------3------3------3------|
-0------2------0------0------|
-0------0------2------2------| (@;finger plucked)
----------------------3------|
-3------2------0-------------|

|-3------3------3------3------|
|-3------3------3------3------|
|-0------2------0------0------|
|-0------0------2------2------| (palm muted downstrokes)
|-x------0------2------3------|
|-3------2------0-------------|

Pre-chrous 1:
-3------3------3------3------|
-3------3------3------3------|
-0------0------0------2------|
-2------2------0------0------|
-2------3------x------0------|
-0-------------3------2------|

-------------------------------3-------------|
-------3-------3-------3---2-----3-----------|
-----0-------0-------0-----1-------0---------|
---2-------2-------0-----------------0-------|
---------3-----------------------------x-----|
-0---------------3---------2-------------3---|

Chorus 1:
|-3------3------3------3------|
|-3------3------3------3------|
|-0------2------0------0------|
|-0------0------2------2------|
|-x------0------2------3------|
|-3------2------0-------------|

Verse 2:
|-3------3------3------3---3---|
|-3------3------3------3---3---|
|-0------2------0------0---0---|
|-0------0------2------2---2---|(Single Downstrokes)
|-x------0------2------3---3---|
|-3------2------0--------------|

Pre-chrous 2:
-3------3------3------3------|
-3------3------3------3------|
-0------0------0------2------|
-2------2------0------0------| (palm muted)
-2------3------x------0------|
-0-------------3------2------|

-------------------------------3-------------|
-------3-------3-------3---3-----3-----------|
-----0-------0-------0-----2-------0---------|
---2-------2-------0-----------------0-------|
---------3-----------------------------x-----|
-0---------------3---------2-------------3---|

Chrous 2:
|-3------3------3------3------|
|-3------3------3------3------|
|-0------2------0------0------|
|-0------0------2------2------|
|-x------0------2------3------|
|-3------2------0-------------|

Bridge:
-3------3------3------3------|
-3------3------3------3------|
-0------0------0------2------|
-2------2------0------0------| (@;single downstrum)
-2------3------x------0------|
-0-------------3------2------|

-----------------------------*---|
-------3-------3-------3---3-*---|
-----0-------0-------0-----2-*---|
---2-------2-------0---------*---|
---------3-------------------*---|
-0---------------3---------2-*---|

|-3------3------3------3------|
|-3------3------3------3------|
|-0------2------0------0------|
|-0------0------2------2------|
|-x------0------2------3------|
|-3------2------0-------------|

Chrous 3: 
|-3------3------3------3------|
|-3------3------3------3------|
|-0------2------0------0------|
|-0------0------2------2------|
|-x------0------2------3------|
|-3------2------0-------------|

Outro:
|-3------3------3------3------3~-|
|-3------3------3------3------3~-|
|-0------2------0------0------0~-|
|-0------0------2------2------0~-|
|-x------0------2------3------x~-|
|-3------2------0-------------3~-|
Suggest correction
comments
print report bad tab
5 comments total. Showing first comments.
0 reply
msummers10 10 Nov 09, 2012 06:20 PM

Can you explain where the 2xx12x at the end of the pre-chorus is in the song? It sounds terrible!

0 reply
Nightdwella 10 Dec 29, 2012 08:09 AM

maybe that 1 is supposed to be a 2, not sure if its right but sounds better

0 reply
Nightdwella 10 Dec 29, 2012 08:02 AM

yeah i dont understand it either, everything else is good though

guest
You may want to rate the tab now too:
select rating
Wanna post a correction for this tab? Suggest correction