Oops, an error
Loading. Please wait.

Forever Tab

version 2
version 2

Whole song

25,730 views 9 this week
no commentswrite comment
1 2 3 4 5
excellent!
x 3
add to favorites
launch autoscroll
font size
0
reset
how to read this tab
guitar tuner
Autoscroll
slow
fast
+/-
esc
set tempo
stop
Help us to improve Ultimate-Guitar.com Take our survey!
×
Author
Forever
Boyce Avenue

Transcribed by: xineanne_14@yahoo.com
(Please e-mail me if you have questions or comments)

Intro

Guitar 1
e|------------------|----------------|----------------|---------------|
B|------------------|----------------|----------------|---------------|
G|------77-6--------|----66h7-6------|----6/7\6---4---|----6/7\6---4--|
D|----7------7/9----|------------7---|----------------|---------------|
A|------------------|----------------|----------------|---------------|
E|------------------|----------------|----------------|---------------|

Guitar 2 [strum once]
             E                   B                F#              C#m

*strum at the same time with the last tab for each section
example: E and 7/9
         B and 7
         F# and 4
         C#m and 4

Repeat twice then...

e|-------------------|
B|-------------------|
G|-----77--6---------|
D|---7---------------|
A|-------------------|
E|-------------------|

      E         B
e|----0----|----2----------|
B|----0----|----4----------|
G|----1----|----4----------|
D|----2----|----4----------|
A|----2----|----2----------|
E|----0----|----2----------|
 it's you   and me moving at the

          F#               C#m
e|---------2-------|--------4----|
B|-------2---------|------5------|
G|-----3-----------|----6--------|
D|---4-------------|--6----------|
A|-4---------------|-------------|
E|-----------------|-------------|
   speed of light    into eternity

       E               B
e|----------0----|---------2----|
B|--------0------|-------4------|
G|------1--------|-----4--------|
D|----2----------|---4----------|
A|---------------|--------------|
E|---------------|--------------|
tonight is         the night

         F#               C#m
e|---------2-------|------------4----|
B|-------2---------|----------5------|
G|-----3-----------|--------6--------|
D|---4-------------|------6----------|
A|-4---------------|-----------------|
E|-----------------|-----------------|
to join me in the middle of ecstasy

      E               B
e|----------0----|---------2----|
B|--------0------|-------4------|
G|------1--------|-----4--------|
D|----2----------|---4----------|
A|---------------|--------------|
E|---------------|--------------|
fill the melody and the rhythm of the music

        F#               C#m
e|---------2-----|---------4----|
B|-------2-------|-------5------|
G|-----3---------|-----6--------|
D|---4-----------|---6----------|
A|-4-------------|--------------|
E|---------------|--------------|
  around you        around you

[strumming]
Pre-chorus:
E                    B
I'ma take you there, I'ma take you there
F#                  C#m
So don't be scared, I'm right here baby

[same flow of chords til the end except for verse 2, do it like verse 1]

Guitar solo chords: E-B-F#-C#m

And since the version has no bridge, I didn't include the chords here.
I'll try to transcribe the guitar solo.
After the guitar solo, the chords in pre-chorus are being plucked. Just do the verse 1 
Listen to the song and you'll get it.
Enjoy! :)
Suggest correction
Give kudos to tab author, rate the tab!
1 2 3 4 5
comments
print report bad tab
guest
You may want to rate the tab now too:
select rating
Please do not post tabs as comments. Select "correction" instead!