Oops, an error
Loading. Please wait.

I Want It That Way Tab

version 2
version 2

Whole song

  • Version is like on https://www.youtube.com/watch?v=bwnGM_I2WPk.

Interactive

58 views 6 this week
no commentswrite comment
1 2 3 4 5
2 more votes to show rating
add to favorites
launch autoscroll
font size
0
reset
how to read this tab
guitar tuner
Autoscroll
slow
fast
+/-
esc
set tempo
stop
Help us to improve Ultimate-Guitar.com Take our survey!
×
Author
Difficulty
intermediate
These are the tabs to the SECOND GUITAR of the song (Fabians tabs). 

I don't figured out every finger style and also don't finished it yet, 
but it could be a starting point to get into the theme of the song. 


First verse nothing is played on second guitar. It starts with the verse "but we are two worlds apart..."

[2n Verse]
e|-------------------|     |-------------------------------|
B|-5-----8--7-----5--|     |---5------8---7---8-----10/12--|
G|-------------7-----| 2x  |-------------------------------|
D|-------------------|     |-------------------------------|
A|-------------------|     |-------------------------------|
E|-------------------|     |-------------------------------|

[Chorus]

e|-10--10--10-----------------------------|
B|-------------8--10--8--10/12------------|
G|---------------------------------9--12--|  2x 
D|----------------------------------------|
A|----------------------------------------|
E|----------------------------------------|


e|-10--10--10----------------------|-------------------------------------|
B|-------------8--10--8--10/12-----|-------------------------------------|
G|---------------------------------|-8--7-----------------7-------7---8--|
D|---------------------------------|----------9\4-----7-------7----------|
A|---------------------------------|-------------------------------------|
E|---------------------------------|-------------------------------------|




************************************

| /   Slide up
| \   Slide down

************************************


I recommend for the big solo at the end the tabs from here:

https://tabs.ultimate-guitar.com/b/boyce_avenue/i_want_it_that_way_tab_1161577id_18062012date.htm
Suggest correction
Give kudos to tab author, rate the tab!
1 2 3 4 5
comments
print report bad tab
guest
You may want to rate the tab now too:
select rating
Wanna post a correction for this tab? Suggest correction