Oops, an error
Loading. Please wait.

Iris Bass Tab

version 1
version 1

Whole song

Interactive

3,202 views 6 this week
no commentswrite comment
1 2 3 4 5
please rate
add to favorites
launch autoscroll
font size
0
reset
guitar tuner
Autoscroll
slow
fast
+/-
esc
set tempo
stop
Help us to improve Ultimate-Guitar.com Take our survey!
×
Contributor
Difficulty
novice
Best song out there by Boyce Avenue! And no bass tabs, so I made one even though I 
don't play bass or tab bass either so hope it's all good :)


Band: Boyce Avenue - Iris (Goo Goo Dolls Cover)
Album: Acoustic Sessions: Vol. 3
Year: 2009
Tabbed by: Scott Naylor

Tuning - Eb Ab Db gb


Verse 1

gb||-----------------------------------------------------|  
Db||-----------------------------------------------------|  
Ab||----------------------------------14--16--17---------|  
Eb||-----------------------------------------------------| 


Chorus

gb||-----------------------------------------------------|  
Db||-----------------------------------------------------|  
Ab||-----------------------------------------------------|  
Eb||-7--5--3-----7--5--3-----7--5--3-----7--5--3---------| 


Intro Riff

gb||-----------------------------------------------------|  
Db||-9-----12-------------------9-----12-----------------|  
Ab||----------10-----10-9----------------10--9-----------|  
Eb||----------------------10-----------------------------| 


Verse 2

gb||-----------------------------------------------------|  
Db||-----------------------------------------------------|  
Ab||-5--7--10-----14--12--10-----5--7--10-----14--12--10-|  
Eb||-----------------------------------------------------| 


Chorus


Bridge

gb||-----------------------------------------------------|  
Db||-9-----12-------------------9-----12-----------------|  
Ab||----------10-----10-9----------------2-4-5-7-9-5-----|  
Eb||----------------------10-----------------------------| 

gb||-----------------------------------------------------|  
Db||-------------------------------9-11-12-14-16-12------|  
Ab||-10-----12--9-----5--10-----12-----------------------|  
Eb||-----------------------------------------------------| 

gb||-----------------------------------------------------|  
Db||-----------------------------------------------------|  
Ab||-10-----12--9-----5--2-----2/9-14-12-10-9-7-5-2------|  
Eb||-----------------------------------------------------| 

gb||-----------------------------------------------------|  
Db||------------------------------16bb-14--12------------|  
Ab||-----------------------------------------------------|  
Eb||-----------------------------------------------------| 


Last Chorus

gb||-----------------------------------------------------|  
Db||-----------------------------------------------------|  
Ab||-----------------------------------------------------|  
Eb||-7--5--3---3-5-7--5--3-----7--5--3---3-5-7--5--3-----| 

gb||-----------------------------------------------------|  
Db||-----------------------------------------------------|  
Ab||-----------------------------------------------------|  
Eb||-7--5--3---3-5-7--5--3---12-10-8-7--5--3~------------| 



   / = Slide up
   ~ = Let ring
  bb = Bend up 1 tone then bend back
     
     Feel free to leave me feedback on the tab at scotty_naylor@hotmail.com

     Thanks
comments
We did not receive enough feedback on this tab! Please rate:
print report bad tab
1 2 3 4 5
I want to post or [tab]
guest
You may want to rate the tab now too:
select rating
Please do not post tabs as comments. Select "correction" instead!