Oops, an error
Loading. Please wait.

Just The Way You Are Tab

version 2
version 2

Whole song

Interactive

110,813 views 57 this week
1 commentread comment
1 2 3 4 5
excellent!
x 10
add to favorites
launch autoscroll
font size
0
reset
how to read this tab
guitar tuner
Tab Pro tools
  • play this tab
  • loop segment
  • change instrument
  • show fretboard
  • metronome
×
Best way to learn
"Just The Way You Are"
Autoscroll
slow
fast
+/-
esc
set tempo
stop
Contributor
Difficulty
Capo
novice
1st fret
Performed by Boyce Avenue
Bruno Mars- Just The Way You Are
Tabbed by Jake Machado
jake_machado22@yahoo.com

Here's an easier way to play this song in
the key they play in without having to tune
your guitar down.

Standard tuning
Capo 1

Chords
C- X,3,2,0,1,0
Am7- X,0,2,0,1,0
Fsus2- 1,3,3,0,1,0

Intro and Verse picking:
|------------------------------------|
|-------1--------1--------1--------1-|
|-----0--------0--------0--------0---|
|---2--------2--------2--------2-----|
|-3--------3--------0--------0-------|
|------------------------------------|

|------------------------------|
|-------1--------1--------1----|
|-----0--------0--------0------|
|---3--------3--------2--------|
|-------------------3--------3-|
|-1--------1-------------------|


verse 4 riff

-------------------------------------------------------------|
-------1--------------1--------------1--------------1--------|
-----0----0---0-----0----0---0-----0----0---0-----0----0---0-|
---2--------2-----2--------2-----2--------2-----2--------2---|
-3--------------3--------------0--------------0--------------|
-------------------------------------------------------------|

------------------------------------------------|
-------1--------------1--------------1----------|
-----0----0---0-----0----0---0-----0----0---0---|
---3--------3-----3--------3-----2--------2-----|
-------------------------------3--------------3-|
-1--------------1-------------------------------|



Verse 1 (single downstrokes)
   C
Oh her eyes, her eyes;

                                            Am7
Make the stars look like they're not shining.


Her hair, her hair;

                                  Fsus2
Falls perfectly without her trying.


She's so beautiful;

                   C
And I tell her every day.


Verse 2 (play verse riff above, here are chord changes)
    C  
Yeah; I know, I know,


When I compliment her

                     Am7
She won't believe me.


And it's so, it's so

                                           Fsus2
Sad to think that she don't see what I see.


But every time she asks me "do I look okay?",

  C
I say:


Chorus 1 (Strum chords)
                C
When I see your face,

              Am7
There's not a thing that I would change.

              Fsus2
Cause you're amazing,

                 C
Just the way you are.

             C
And when you smile,

                Am7
The whole world stops and stares for a while.

                   Fsus2
'Cause girl you're amazing,

                 C
Just the way you are.


Verse 3 (single downstrokes for each chord)
      C
Yeah, Her lips, her lips;

       C                                  Am7
I could kiss them all day if she'd let me.


Her laugh, her laugh;

Am7                                Fsus2
She hates but I think it's so sexy.

                   Fsus2
She's so beautiful,

                C           C
And I tell her every day.


Verse 4 (play verse 4 riff)
       C
Oh you know, you know, you know

                           
I'd never ask you to change.

   Am7                               
If perfect's what you're searching for

                   
Then just stay the same.

  Fsus2
So, don't even bother asking


If you look okay;

           C
You know I say:


Chorus 2(strum chords)
                C
When I see your face,

              Am7
There's not a thing that I would change.

              Fsus2
'Cause you're amazing,

                 C
Just the way you are.

             C
And when you smile,

                Am7
The whole world stops and stares for a while.

                  Fsus2
Cause girl you're amazing,

                 C
Just the way you are.


                C
The way you are.

                Am7
The way you are.

            Fsus2
Girl you're amazing,

                 C
Just the way you are.

            C
The way you are.

            Am7
The way you are.

                Fsus2
Cuz girl you're amazing

                 C
Just the way you are


Outro (single downstrokes)
                C
When I see your face,

              Am7
There's not a thing that I would change.

              Fsus2
'Cause you're amazing,

                 C
Just the way you are.


(Lightly strum)
             C
And when you smile,

                Am7
The whole world stops and stares for a while.

                   Fsus2
'Cause girl you're amazing,

                 C (single downstroke)
Just the way you are.
comments
print report bad tab
1 comment total.
0 reply
justme.thon wrote on May 17 2013, 08:59 pm

better and easy to use
C then Am then F

I want to post or [tab]
guest
You may want to rate the tab now too:
select rating
Please do not post tabs as comments. Select "correction" instead!