Oops, an error
Loading. Please wait.

Let Her Go Tab

119,202 views 177 this week
12 commentsread comments
1 2 3 4 5
excellent!
x 45
add to favorites
launch autoscroll
font size
0
reset
how to read this tab
guitar tuner
Autoscroll
slow
fast
+/-
esc
set tempo
stop
Help us to improve Ultimate-Guitar.com Take our survey!
×
Author
Capo
kingstahh 870
4th fret
Let Her Go - Boyce Avenue feat. Hannah Trigwell
Tabbed by: Kingsley

Tuning: Standard (Capo 4th Fret)

Guitar 1 - Alejandro
Guitar 2 - Hannah

(Alejandro)
e|---------3-----5-------------3-2-------------------------|
B|-----3h5-------------------------5-3-0-------------------|
G|-2s4-----------------------------------2----0h2--2s4s2p0-|
D|---------------------------------------------------------|
A|---------------------------------------------------------|
E|---------------------------------------------------------|

(Hannah)
e|---------------------2-----------------------------2---|
B|-------0h1-1-------3---3-------0-------0---------3---3-|
G|-----0-------0---2-------2-------0-------0-----2-------|
D|---2-----------0-----------0-------0h2-----2-0---------| 
A|-3---------------------------2-------------------------|
E|-------------------------------------------------------|

(Alejandro)
e|----------3----5--------3-10-7-7s5-3s2---------|
B|-----3h5-----------------------------------3---|
G|-2s4-------------------------------------------|
D|---------------------------------------------0-|
A|-----------------------------------------------|
E|-----------------------------------------------|

(Hannah)
e|---------------------2-----------------------|
B|-------0h1-1-------3---3-------0-------0-----|
G|-----0-------0---2-------2-------0-------0---|
D|---2-----------0-----------0-------0h2-----2-| 
A|-3---------------------------2---------------|
E|---------------------------------------------|


[Chorus:] (Alejandro)
              C                       G
Only need the light when it s burning low
              D                      Dsus4
Only miss the sun when its starts to snow   
                   C                      G     D 
You only know your lover when you let her go
                  Em C D Bm Em C D
And you let her go

(Hannah)
   C       G       D       Dsus4   C       G         D
e|-0-------3-------2-------3-------0-------3-------2-------|
B|---1-------0-------3-------3-------1-------0-------3-----|
G|-----0-------0-------2-------2-------0-------0-------2---|
D|-----------------0-----0-0-----0-----------------0-----0-|
A|-3-----3-------------------------3-----3-----------------|
E|---------3-----3-------------------------3-----3---------|
                  Em C D Bm Em C D
And you let her go


[Verse:] (Alejandro)
Em                            C
Staring at the bottom of your glass
       D                             Bm
Hoping one day you will make a dream last
                Em               C          D
The dreams come slow and goes so fast
    Em                          C
You see her when you close your eyes
      D                           Bm
Maybe one day you will understand why
               Em           C         D
Everything you touch all it dies

(Hannah)
   Em      C       D       Bm             _
e|-0-----0-0-----0-2-----2-2-----2-|       | 
B|---0-------1-------3-------3-----|       |
G|-----0-------0-------2-------4---|       |
D|-----------------0---------------|       |
A|-2-------3---------------2-------|       |
E|---------------------------------|       |
   Em      C       D(Don't end with this)  |--x2
e|-0-----0-0-----0-2-------2-----2h3-|     |
B|---0-------1-------3-------3-------|     |
G|-----0-------0-------2-------------|     |
D|-----------------0-----0-----0-----|     |
A|-2-------3-------------------------|     |
E|-----------------------------------|    _|
                                              
End with:
   D
e|-2-----3-2-----2h3-|    
B|---3-------3-------|    
G|-----2-------------|    
D|-0-----0-----0-----|    
A|-------------------|    
E|-------------------|


[Chorus:] Alejandro & Hannah
              C                       G
Only need the light when it's burning low
              D                      Dsus4
Only miss the sun when its starts to snow
                   C                      G   D Dsus4 
You only know your lover when you let her go
                      C                        G
Only know you've been high when you're feeling low
              D                       Dsus4
Only hate the road when you're missin home
               C                      G   D Dsus4
Only know your lover when you let her go


[Verse:] Alejandro
Em                            C
Staring at the ceiling in the dark
         D                     Bm
Same old empty feeling in your heart
           Em                  C       D
Love comes slow and it goes so fast
         Em                      C
Well you see her when you fall asleep
                D                  Bm
But to never to touch and never to keep
                         Em
Because you loved her to much
                 C          D
And you dive too deep


(Hannah)
   Em      C       D       Bm             _
e|-0-----0-0-----0-2-----2-2-----2-|       | 
B|---0-------1-------3-------3-----|       |
G|-----0-------0-------2-------4---|       |
D|-----------------0---------------|       |
A|-2-------3---------------2-------|       |
E|---------------------------------|       |
   Em      C       D(Don't end with this)  |--x2
e|-0-----0-0-----0-2-------2-----2h3-|     |
B|---0-------1-------3-------3-------|     |
G|-----0-------0-------2-------------|     |
D|-----------------0-----0-----0-----|     |
A|-2-------3-------------------------|     |
E|-----------------------------------|    _|
                                              
End with:
   D
e|-2-----3-2-----2h3-|    
B|---3-------3-------|    
G|-----2-------------|    
D|-0-----0-----0-----|    
A|-------------------|    
E|-------------------|


[Chorus:] Alejandro & Hannah
              C                       G
Only need the light when it's burning low
              D                      Dsus4
Only miss the sun when its starts to snow
                   C                      G   D Dsus4 
You only know your lover when you let her go
                      C                        G
Only know you've been high when you re feeling low
              D                       Dsus4
Only hate the road when you're missin home
               C                      G   D Dsus4
Only know your lover when you let her go


[Bridge:] (Alejandro)
e|-----------------------------------------------------|    
B|-8---------8---7-----3---5---------5---7---------7---|    
G|---0---------0---0-----0---0---------0---0---------0-|    
D|-----0---0---------0---------0---0---------0---0-----|    
A|-------------------------3-----3-------5-----5-------|    
E|-0-----0-------0-------------------------------------|

e|-----------------------------------------|    
B|-8---------8---7-----3---5---------5---3-|    
G|---0---------0---0-----0---0---------0---|    
D|-----0---0---------0---------0---0-----0-|    
A|-------------------------3-----3---------|    
E|-0-----0-------0-------------------------|


[Chorus:] (Alejandro)
              C                       G
You only need the light when it's burning low
              D                      Dsus4
Only miss the sun when its starts to snow
                   C                      G   D Dsus4 
You only know your lover when you let her go
                      C                        G
Only know you've been high when you're feeling low
              D                       Dsus4
Only hate the road when you're missin home
               C                      G   D Dsus4
Only know your lover when you let her go

(Hannah)
   C             G             D             Dsus4            _
e|-0-------0-----3-------3-----2-------2-----3-------3-----|   |
B|---1-------1-----0-------0-----3-------3-----3-------3---|   |
G|-----0-------0-----0-------0-----2-------2-----2-------2-|   |
D|-----------------------------0-----0-------0-----0-------|   |
A|-3-----3-------------------------------------------------|   |
E|---------------3-----3-----------------------------------|   |
   C             G             D                               |--x2
e|-0-------0-----3-------3-----2-------2-----2h3-|             |
B|---1-------1-----0-------0-----3-------3-------|             |
G|-----0-------0-----0-------0-----2-------------|             |
D|-----------------------------0-----0-----0-----|             |
A|-3-----3---------------------------------------|             |
E|---------------3-----3-------------------------|            _|


[Outro:] Alejandro & Hannah
                      C                        G
Only know you've been high when you're feeling low
              D                       Dsus4
Only hate the road when you're missin home         
               C                      G   D
Only know your lover when you let her go



************************************

| h  Hammer-on
| p  Pull-off

************************************
Suggest correction
What's this?
You can suggest a correction to this tab. Community and Mods will review your correction and vote to approve or reject it.
comments
print report bad tab
12 comments total. Showing first comments.
0 reply
rstott24 83 wrote on September 14 2013, 10:24 pm

I so want to learn to stash a pick in my hands and fingerpick like Alejandro does. Any tips?

-1 reply
kingstahh 870 wrote on September 15 2013, 07:20 am

Sorry I can't give you any tips there since I can't even do that myself D:

0 reply
Ripa75 55 wrote on October 24 2013, 11:29 am

can you put in a guitar pro file, please?

guest
You may want to rate the tab now too:
select rating
Please do not post tabs as comments. Select "correction" instead!