Oops, an error
Loading. Please wait.

Mirrors Tab

143,032 views 114 this week
11 commentsread comments
1 2 3 4 5
x 31
add to favorites
launch autoscroll
font size
0
reset
how to read this tab
guitar tuner
Autoscroll
slow
fast
+/-
esc
set tempo
stop
Help us to improve Ultimate-Guitar.com Take our survey!
×
Author
Difficulty
Tuning
novice
D# G# C# F# A# D#
Boyce Avenue - Mirrors

Great cover of this masterpiece song, enjoy... :)
Link: https://www.youtube.com/watch?v=fvEZUbzqqyM

Tunning - half step down(Eb,Ab,Db,Gb,Bb,eb)


[Intro]

    D           A           G
eb|-------2-----------0-----------------------------|
Bb|-----3-----------2-------------3-----------------|
Gb|---2-----------2-------------4-------------------|
Db|-0-------------------------5---------------------|
Ab|-------------0-----------------------------------|
Eb|-------------------------3-----------------------|

    D           A           G                   
eb|-------2-----------------------------------------|
Bb|-----3-------------5-----------3-------------0---|
Gb|---2-------------6-----------4---------------0---|
Db|-0-------------7-----------5---------------------|
Ab|-------------0-----------------------------------|
Eb|-------------------------3-------------------3---|


[Verse]

(x2)

    Bm      *   A           Em          G
eb|---------x-----------x-----------x-----------x---|
Bb|-------3-x---------2-x---------0-x---------0-x---|
Gb|-----4---x-------2---x-------0---x-------0---x---|
Db|---4-----x-----2-----x-----2-----x-----0-----x---|
Ab|-2-------x---0-------x-----------x-----------x---|
Eb|---------x-----------x---0-------x---3-------x---|

    Bm          A           Em                  G
eb|---------x-----------x-----------x---------------|
Bb|-------3-x---------2-x---------0-x-----------0---|
Gb|-----4---x-------2---x-------0---x-----------0---|
Db|---4-----x-----2-----x-----2-----x---------------|
Ab|-2-------x---0-------x-----------x---------------|
Eb|---------x-----------x---0-------x-----------3---|

*NOTE - Hit strings with your palm to mute them


[Pre-Chorus]

(let notes ring):

    Bm          A           Em          G
eb|-------2-----------0-----------------------------|
Bb|-----3-----------2-------------0-----------0-----|
Gb|---4-----------2-------------0-----------0-------|
Db|---------------------------2-----------0---------|
Ab|-2-----------0-----------------------------------|
Eb|-------------------------0-----------3-----------|

    Bm          A           Em          G
eb|-------2-----------0-----------------------------|
Bb|-----3-----------2-------------0-----------------|
Gb|---4-----------2-------------0-------------------|
Db|---------------------------2---------------------|
Ab|-2-----------0-------------------------------10\-|
Eb|-------------------------0-----------------------|


[Chorus]

(strum)
   
    D           A           G
eb|-2-----------0-----------3-----------------------|
Bb|-3-----------2-----------3-----------------------|
Gb|-2-----------2-----------0-----------------------| x2
Db|-0-----------2-----------0-----------------------|
Ab|-------------0-----------x-----------------------|
Eb|-------------------------3-----------------------|

    D           A           Em          Bm
eb|-2-----------0-----------0-----------2-----------|
Bb|-3-----------2-----------0-----------3-----------|
Gb|-2-----------2-----------0-----------4-----------|
Db|-0-----------2-----------2-----------4-----------|
Ab|-------------0-----------2-----------2-----------|
Eb|-------------------------0-----------------------|

    D           A           G
eb|-2-----------0-----------3-----------------------|
Bb|-3-----------2-----------3-----------------------|
Gb|-2-----------2-----------0-----------------------| x3
Db|-0-----------2-----------0-----------------------|
Ab|-------------0-----------x-----------------------|
Eb|-------------------------3-----------------------|

    D           A           Em          Bm
eb|-2-----------0-----------0-----------2-----------|
Bb|-3-----------2-----------0-----------3-----------|
Gb|-2-----------2-----------0-----------4-----------|
Db|-0-----------2-----------2-----------4-----------|
Ab|-------------0-----------2-----------2-----------|
Eb|-------------------------0-----------------------|

    D           A           G
eb|-2-----------0-----------3-----------------------|
Bb|-3-----------2-----------3-----------------------|
Gb|-2-----------2-----------0-----------------------|
Db|-0-----------2-----------0-----------------------|
Ab|-------------0-----------x-----------------------|
Eb|-------------------------3-----------------------|


[Verse]

Pre-chorus(no bass slide in the end this time):

[Chorus]

[Bridge]

    Em                      Bm
eb|-0-----------------------2-----------------------|
Bb|-0-----------------------3-----------------------|
Gb|-0-----------------------4-----------------------|
Db|-2-----------------------4-----------------------|
Ab|-2-----------------------2-----------------------|
Eb|-0-----------------------------------------------|

    Em                      Bm          A
eb|-0-----------------------2-----------0-----------|
Bb|-0-----------------------3-----------2-----------|
Gb|-0-----------------------4-----------2-----------|
Db|-2-----------------------4-----------2-----------|
Ab|-2-----------------------2-----------0-----------|
Eb|-0-----------------------------------------------|

    Em                      Bm
eb|-0-----------------------2-----------------------|
Bb|-0-----------------------3-----------------------|
Gb|-0-----------------------4-----------------------|
Db|-2-----------------------4-----------------------|
Ab|-2-----------------------2-----------------------|
Eb|-0-----------------------------------------------|

    G                       A
eb|-3-----------------------0-----------------------|
Bb|-3-----------------------2-----------------------|
Gb|-0-----------------------2-----------------------|
Db|-0-----------------------2-----------------------|
Ab|-x-----------------------0-----------------------|
Eb|-3-----------------------------------------------|


[Chorus]

1st half - just singing and clapping

2nd half(x2):

eb|-------7-7-7-------------7-7-7-------------------------------------------|
Bb|-------------10-10-------------10-10-------10-10-10-8-8-------7-7-7-7-7--|
Gb|-7-7-7-------------6-6-6-------------------------------------------------|
Db|-------------------------------------9-9-9--------------9-9-9------------|
Ab|-------------------------------------------------------------------------|
Eb|-------------------------------------------------------------------------|
                                                          ________________  ___________
                                                         | 1st ending      | 2nd ending
eb|-------7-7-7-------------7-7-7-------------------------------------------|-----------|
Bb|-------------10-10-------------10-10-------10-10-10-8-8-------7-7-7-8-10-|-----------|
Gb|-7-7-7-------------6-6-6-------------------------------------------------|-----------|
Db|-------------------------------------9-9-9--------------9-9-9------------|-9-9-9-9---|
Ab|-------------------------------------------------------------------------|-----------|
Eb|-------------------------------------------------------------------------|-----------|

Then start with regular chorus strumming 'till the end.

    D           A           G
eb|-2-----------0-----------3-----------------------|
Bb|-3-----------2-----------3-----------------------|
Gb|-2-----------2-----------0-----------------------| x2
Db|-0-----------2-----------0-----------------------|
Ab|-------------0-----------x-----------------------|
Eb|-------------------------3-----------------------|

    D           A           Em          Bm
eb|-2-----------0-----------0-----------2-----------|
Bb|-3-----------2-----------0-----------3-----------|
Gb|-2-----------2-----------0-----------4-----------|
Db|-0-----------2-----------2-----------4-----------|
Ab|-------------0-----------2-----------2-----------|
Eb|-------------------------0-----------------------|

    D           A           G
eb|-2-----------0-----------3-----------------------|
Bb|-3-----------2-----------3-----------------------|
Gb|-2-----------2-----------0-----------------------|
Db|-0-----------2-----------0-----------------------|
Ab|-------------0-----------x-----------------------|
Eb|-------------------------3-----------------------|


************************************

| x  Dead note
| b  Bend
| \  Slide down

************************************


Lyric:

[Verse]
Aren't you something to admire, 'cause your shine is something like a mirror 
And I can't help but notice, you reflect in this heart of mine 
If you ever feel alone and the glare makes me hard to find 
Just know that I'm always parallel on the other side 

[Pre-Chorus]
'Cause with your hand in my hand and a pocket full of soul 
I can tell you there's no place we couldn't go 
Just put your hand on the glass, I'm here trying to pull you through 
You just gotta be strong 

[Chorus]
'Cause I don't wanna lose you now, I'm looking right at the other half of me 
The vacancy that sat in my heart is a space that now you hold 
Show me how to fight for now, and I'll tell you, baby, it was easy 
Coming back into you once I figured it out you were right here all along 

It's like you're my mirror, my mirror staring back at me 
I couldn't get any bigger with anyone else beside of me 
And now it's clear as this promise that we're making two reflections into one 
'Cause it's like you're my mirror, my mirror staring back at me, staring back at me 

[Verse]
Aren't you something, an original, 'cause it doesn't seem merely assembled 
And I can't help but stare 'cause I see truth somewhere in your eyes 
Ooh I can't ever change without you, you reflect me, I love that about you 
And if I could, I would look at us all the time 

[Pre-Chorus]

[Chorus]

[Bridge]
Yesterday is history 
Tomorrow's a mystery 
I can see you looking back at me 
Keep your eyes on me Baby, keep your eyes on me 

[Chorus]

[Ending]
Oooooooaaaaaaaaah
Show me how to fight for now
Oooooooaaaaaaaaah
'Cause I don't want to lose you now
Oooooooaaaaaaaaah
Oooh, Oooh
Oooouuuuuuaaaah
It's like you're my mirror
Suggest correction
comments
print report bad tab
11 comments total. Showing first comments.
+2 reply
Dee Ay 374 May 14, 2013 10:32 PM

Hey, you forgot to note that this song is tuned a half step down. I'm going through this right now...sounds good so far.

0 reply
Stefan_P 1,404 May 15, 2013 03:03 AM

Hey, I saw that after it was approved, sorry about that. Everything else should be ok. Thanks for the correction...

0 reply
kingstahh 166 Jun 01, 2013 11:37 AM

In the intro

D A Em
e|-------2-----------0-----------------------------|
B|-----3-----------2-------------3-----------------|
G|---2-----------2-------------4-------------------|
D|-0-------------------------5---------------------|
A|-------------0-----------------------------------|
E|-------------------------0-----------------------|

D A Em G
e|-------2-----------------------------------------|
B|-----3-------------5-----------3-------------0---|
G|---2-------------6-----------4---------------0---|
D|-0-------------7-----------5---------------------|
A|-------------0-----------------------------------|
E|-------------------------0-------------------3---|

the Em is

e|---------|
B|-------3-|
G|-----4---|
D|---5-----|
A|---------|
E|-3-------|

You can see he holds the note with his thumb

guest
You may want to rate the tab now too:
select rating
Wanna post a correction for this tab? Suggest correction