Oops, an error
Loading. Please wait.

Need You Now Tab

45,846 views 42 this week
no commentswrite comment
1 2 3 4 5
excellent!
x 11
add to favorites
launch autoscroll
font size
0
reset
how to read this tab
guitar tuner
Autoscroll
slow
fast
+/-
esc
set tempo
stop
Help us to improve Ultimate-Guitar.com Take our survey!
×
Difficulty
novice
Lady Antebellum – Need You Now (Boyce Avenue & Savannah Outen Acoustic Cover)
http://www.youtube.com/watch?v=NmnmD1nk9Gw

Tabbed by: Esperance

Tuning:
E A D G B E  (Standard-Tuning)

x = mute
/ = slide
^ = hammer on or pull off


Guitar 2: (Alejandro)


Intro:
---------------------|
-4-5---------3/4-5---|
-------------------4-|                                            
-----7--6------------|
---------------------|
---------------------|
 
Verse Intro Riff:
--------------------------------------------|
--------------------------------------------|
-4-6-6-4-6-4-6-4-6-4^6/9-9-11-13-(b14)-11-9-|         
--------------------------------------------|
--------------------------------------------|
--------------------------------------------|


Verse:
-0---0-----------------0---0-|
-5---5---------------0-----5-|
-6---6---------------------6-|                          
-7---6---4/6/4-2-----------6-|
-----4-----------2-0-------4-|
-----------------------------|


-0---0---0-|
-5---5---5-|
-6---6---6-| (Palm Mute)
-7---6---7-|
-----4-----|
–----------|


Chorus:
–0---0---0---0---0-|
-0---0---0---0---5-|
-1---4---1---4---6-|
-2---6---2---6---7-|
-2---6---2---6---7-|
-0---4---0---4---5-|


Bridge:
-0--0-0---0---0---0--0-0---0---0---0------0---0-|
-5--0-0---2---0---5--0-0---2---0---0------5---0-|
-6--4-1---2---4---6--4-1---2---4---1------6---4-|
-6--4-2---0---4---6--4-2---0---4---2------6---4-|
-4--2-2---0---2---4--2-2---0---2---2------4---2-|
------0---0------------0---0-------0------------|

 
Ending:
-0---0---0---0---0---0---0---0---0-|
-0---0---0---0---0---0---0---0---0-|
-1---4---1---4---1---4---1---4---1-|
-2---6---2---6---2---6---2---6---2-|
-2---6---2---6---2---6---2---6---2-|
-0---4---0---4---0---4---0---4---0-|


Suggest correction
comments
print report bad tab
guest
You may want to rate the tab now too:
select rating
Please do not post tabs as comments. Select "correction" instead!