Oops, an error
Loading. Please wait.

Not A Bad Thing Tab

version 1
version 1

Whole song

Interactive

34,138 views 99 this week
9 commentsread comments
1 2 3 4 5
excellent!
x 18
add to favorites
launch autoscroll
font size
0
reset
how to read this tab
guitar tuner
Autoscroll
slow
fast
+/-
esc
set tempo
stop
Help us to improve Ultimate-Guitar.com Take our survey!
×
Author
Difficulty
intermediate
-------------------------------------------------------------------------------
                        Boyce Avenue - Not A Bad Thing
-------------------------------------------------------------------------------
Tabbed by: Stefan Premovic

Wow, was this fun to tab! Hope you have fun playing as much as I do, and you 
don't mind that I skipped guitar 2 part for bridge, it gave me trouble. :D
Alejandro's guitar has much more volume, I couldn't hear some parts, so I
skipped the whole bridge part. If you figure it out, let me know by leaving 
it in a comment. :)


Alejandro - guitar 1                Fabian - guitar 2
Tuning : D#A#D#GA#d#                Tuning : EADGBe 
Capo   : 3rd fret                   Capo   : 4th fret


[Intro]
 e|-----------------------------------3-----3-----2-----5-----------|
 B|---3-----3-----2-----5-----3-------------------------------5-----|
 G|-----2-----2-----2-----2-----2-------4-----4-----2-----2-----2---|
 D|-0-----0-----0-----0-----0-----0-0-----0-----0-----0-----0-----0-|
 A|-----------------------------------------------------------------|
 E|-----------------------------------------------------------------|

d#|-0-0-0-0-----0-0-0-0-------------0-0-0-0-----0-0-0-0-------------|
A#|-0-0-0-0-----0-0-0-0-----9\------0-0-0-0-----0-0-0-0-------------|
G |-0-0-0-0-----0-0-0-0-----8\------5-5-5-5-----5-5-5-5-------------| x3
D#|-0-0-0-0-----0-0-0-0-------------4-4-4-4-----2-2-2-2---------0h2-|
A#|-0-0-0-0-----0-0-0-0-------------2-2-2-2-----4-4-4-4-----0h2-----|
D#|-0-0-0-0-----0-0-0-0---------------------------------------------|
  |                                                                 |
 e|-----------------------------------3-----3-----2-----5-----------|
 B|---3-----3-----2-----5-----3-------------------------------5-----|
 G|-----2-----2-----2-----2-----2-------4-----4-----2-----2-----2---| x3
 D|-0-----0-----0-----0-----0-----0-0-----0-----0-----0-----0-----0-|
 A|-----------------------------------------------------------------|
 E|-----------------------------------------------------------------|

[Verse 1]
d#|-0-0-0-0-----0-0-0-0-------------0-0-0-0-----0-0-0-0-------------|
A#|-0-0-0-0-----0-0-0-0-----9\------0-0-0-0-----0-0-0-0-------------|
G |-0-0-0-0-----0-0-0-0-----8\------5-5-5-5-----5-5-5-5-------------| 
D#|-0-0-0-0-----0-0-0-0-------------4-4-4-4-----2-2-2-2---------0h2-|
A#|-0-0-0-0-----0-0-0-0-------------2-2-2-2-----4-4-4-4-----0h2-----|
D#|-0-0-0-0-----0-0-0-0---------------------------------------------|

d#|-0-0-0-0-----0-0-0-0-------------0-0-0-0-----0-0-0-0-------------|
A#|-0-0-0-0-----0-0-0-0-----9\------0-0-0-0-----0-0-0-0-------------|
G |-0-0-0-0-----0-0-0-0-----8\------5-5-5-5-----5-5-5-5-------------|
D#|-0-0-0-0-----0-0-0-0-------------4-4-4-4-----2-2-2-2-----2h4p2---|
A#|-0-0-0-0-----0-0-0-0-------------2-2-2-2-----4-4-4-4---------5p2-|
D#|-0-0-0-0-----0-0-0-0---------------------------------------------|

d#|-0-0-0-0-----0-0-0-0-------------0-0-0-0-----0-0-0-0-------------|
A#|-0-0-0-0-----0-0-0-0-----9\------0-0-0-0-----0-0-0-0-------------|
G |-0-0-0-0-----0-0-0-0-----8\------5-5-5-5-----5-5-5-5-------------|
D#|-0-0-0-0-----0-0-0-0-------------4-4-4-4-----2-2-2-2---------0h2-|
A#|-0-0-0-0-----0-0-0-0-------------2-2-2-2-----4-4-4-4-----0h2-----|
D#|-0-0-0-0-----0-0-0-0---------------------------------------------|

d#|-0-0-0-0-----0-0-0-0-------------0-0-0-0-----0-0-0-0-------------|
A#|-0-0-0-0-----0-0-0-0-----9\------0-0-0-0-----0-0-0-0-------------|
G |-0-0-0-0-----0-0-0-0-----8\------5-5-5-5-----5-5-5-5-------------|
D#|-0-0-0-0-----0-0-0-0-------------4-4-4-4-----2-2-2-2-------0h2p0-|
A#|-0-0-0-0-----0-0-0-0-------------2-2-2-2-----4-4-4-4---0h2-------|
D#|-0-0-0-0-----0-0-0-0---------------------------------------------|

[Pre-chorus] - guitar 1 plays same as Verse 1, and guitar 2 plays:
    +     +     +                   +     +     +         +
 e|-----------------------------------------------------------------|
 B|-------7---------------------------------------------------------|
 G|-5-----------7-------------------------------7-------------------|
 D|---------------------------------------7---------------7---------|
 A|---------------------------------7-------------------------------|\
 E|-----------------------------------------------------------------| \
    +     +     +                   +     +     +                      x2
 e|-----------------------------------------------------------------| /
 B|-------7---------------------------------------------------------|/
 G|-5-----------7---------------------------------------------------|
 D|---------------------------------------7-------------------------|
 A|---------------------------------7-----------7-------------------|
 E|-----------------------------------------------------------------|
                                                                                
[Chorus 1]
                           Guitar 1
d#|-0-0-0-0-0-0-0-0-0-0-0-0-0---0-0-0-0-0-0-0-0-0-0-0-0-0-0---------|
A#|-0-0-0-0-0-0-0-0-0-0-0-0-9\--0-0-0-0-0-0-0-0-0-0-0-0-0-0---------|
G |-0-0-0-0-0-0-0-0-0-0-0-0-8\--0-0-5-5-5-5-5-5-5-5-5-5-5-5---------| x3
D#|-0-0-0-0-0-0-0-0-0-0-0-0-0---0-0-4-4-4-4-4-4-2-2-2-2-2-2-----0h2-|
A#|-0-0-0-0-0-0-0-0-0-0-0-0-0-------2-----------4-----------0h2-----|
D#|-0-----------0---------------------------------------------------|

d#|-0-0-0-0-0-0-0-0-0-0-0-0-0---0-0-0-0-0-0-0-0-0-0-0-0-0-0---------|
A#|-0-0-0-0-0-0-0-0-0-0-0-0-9\--0-0-0-0-0-0-0-0-0-0-0-0-0-0---------|
G |-0-0-0-0-0-0-0-0-0-0-0-0-8\--0-0-5-5-5-5-5-5-5-5-5-5-5-5---------|
D#|-0-0-0-0-0-0-0-0-0-0-0-0-0---0-0-4-4-4-4-4-4-2-2-2-2-2-2-2h4p2---|
A#|-0-0-0-0-0-0-0-0-0-0-0-0-0-------2-----------4---------------5p2-|
D#|-0-----------0---------------------------------------------------|

d#|-0-0-0-0-0-0-0-0-0-0-0-0-0---0-0-0-0-0-0-0-0-0-0-0-0-0-0---------|
A#|-0-0-0-0-0-0-0-0-0-0-0-0-9\--0-0-0-0-0-0-0-0-0-0-0-0-0-0---------|
G |-0-0-0-0-0-0-0-0-0-0-0-0-8\--0-0-5-5-5-5-5-5-5-5-5-5-5-5---------| x4
D#|-0-0-0-0-0-0-0-0-0-0-0-0-0---0-0-4-4-4-4-4-4-2-2-2-2-2-2-----0h2-|
A#|-0-0-0-0-0-0-0-0-0-0-0-0-0-------2-----------4-----------0h2-----|
D#|-0-----------0---------------------------------------------------|

                           Guitar 2
 e|-----------------------------------------------------------------|
 B|-------3---------2---------------------3---------2---------------|
 G|-----2---------2---------2-----------2---------2---------2-------|
 D|-0---------0---------------------0---------0---------------------|
 A|-----------------------------------------------------------------|\
 E|-----------------------------------------------------------------| \
                                                                       x2
 e|-----------------------------------------------------------------| /
 B|-------3---------2---------------------3---------2---------------|/
 G|-----2---------2---------2-----------2---------2---------2-------|
 D|-0---------0---------------------0---------0-----------------0---|
 A|-----------------------------------------------------------------|
 E|-----------------------------------------------------------------|

 e|-----------------------------------3-----3-----2-----5-----------|
 B|---3-----3-----2-----5-----3-------------------------------5-----|
 G|-----2-----2-----2-----2-----2-------4-----4-----2-----2-----2---| x4
 D|-0-----0-----0-----0-----0-----0-0-----0-----0-----0-----0-----0-|
 A|-----------------------------------------------------------------|
 E|-----------------------------------------------------------------|

[Verse 2]
d#|-0-------------------------------0-0-0-0-----0-0-0-0-------------|
A#|-0-----------------------9\------0-0-0-0-----0-0-0-0-------------|
G |-0-----------------------8\------5-5-5-5-----5-5-5-5-------------| 
D#|-0-------------------------------4-4-4-4-----2-2-2-2---------0h2-|
A#|-0-------------------------------2-2-2-2-----4-4-4-4-----0h2-----|
D#|-0---------------------------------------------------------------|

d#|-0-0-0-0-----0-0-0-0-------------0-0-0-0-----0-0-0-0-------------|
A#|-0-0-0-0-----0-0-0-0-----9\------0-0-0-0-----0-0-0-0-------------|
G |-0-0-0-0-----0-0-0-0-----8\------5-5-5-5-----5-5-5-5-------------|
D#|-0-0-0-0-----0-0-0-0-------------4-4-4-4-----2-2-2-2-----2h4p2---|
A#|-0-0-0-0-----0-0-0-0-------------2-2-2-2-----4-4-4-4---------5p2-|
D#|-0-0-0-0-----0-0-0-0---------------------------------------------|

d#|-0-0-0-0-----0-0-0-0-------------0-0-0-0-----0-0-0-0-------------|
A#|-0-0-0-0-----0-0-0-0-----9\------0-0-0-0-----0-0-0-0-------------|
G |-0-0-0-0-----0-0-0-0-----8\------5-5-5-5-----5-5-5-5-------------|
D#|-0-0-0-0-----0-0-0-0-------------4-4-4-4-----2-2-2-2---------0h2-|
A#|-0-0-0-0-----0-0-0-0-------------2-2-2-2-----4-4-4-4-----0h2-----|
D#|-0-0-0-0-----0-0-0-0---------------------------------------------|

d#|-0-0-0-0-----0-0-0-0-------------0-0-0-0-----0-0-0-0-------------|
A#|-0-0-0-0-----0-0-0-0-----9\------0-0-0-0-----0-0-0-0-------------|
G |-0-0-0-0-----0-0-0-0-----8\------5-5-5-5-----5-5-5-5-------------|
D#|-0-0-0-0-----0-0-0-0-------------4-4-4-4-----2-2-2-2-------0h2p0-|
A#|-0-0-0-0-----0-0-0-0-------------2-2-2-2-----4-4-4-4---0h2-------|
D#|-0-0-0-0-----0-0-0-0---------------------------------------------|

[Pre-chorus] - same as first one

[Chorus 2]
                           Guitar 1
d#|-0-0-0-0-0-0-0-0-0-0-0-0-0---0-0-0-0-0-0-0-0-0-0-0-0-0-0---------|
A#|-0-0-0-0-0-0-0-0-0-0-0-0-9\--0-0-0-0-0-0-0-0-0-0-0-0-0-0---------|
G |-0-0-0-0-0-0-0-0-0-0-0-0-8\--0-0-5-5-5-5-5-5-5-5-5-5-5-5---------| x3
D#|-0-0-0-0-0-0-0-0-0-0-0-0-0---0-0-4-4-4-4-4-4-2-2-2-2-2-2-----0h2-|
A#|-0-0-0-0-0-0-0-0-0-0-0-0-0-------2-----------4-----------0h2-----|
D#|-0-----------0---------------------------------------------------|

d#|-0-0-0-0-0-0-0-0-0-0-0-0-0---0-0-0-0-0-0-0-0-0-0-0-0-0-0---------|
A#|-0-0-0-0-0-0-0-0-0-0-0-0-9\--0-0-0-0-0-0-0-0-0-0-0-0-0-0---------|
G |-0-0-0-0-0-0-0-0-0-0-0-0-8\--0-0-5-5-5-5-5-5-5-5-5-5-5-5---------|
D#|-0-0-0-0-0-0-0-0-0-0-0-0-0---0-0-4-4-4-4-4-4-2-2-2-2-2-2-2h4p2---|
A#|-0-0-0-0-0-0-0-0-0-0-0-0-0-------2-----------4---------------5p2-|
D#|-0-----------0---------------------------------------------------|

d#|-0-0-0-0-0-0-0-0-0-0-0-0-0---0-0-0-0-0-0-0-0-0-0-0-0-0-0---------|
A#|-0-0-0-0-0-0-0-0-0-0-0-0-9\--0-0-0-0-0-0-0-0-0-0-0-0-0-0---------|
G |-0-0-0-0-0-0-0-0-0-0-0-0-8\--0-0-5-5-5-5-5-5-5-5-5-5-5-5---------|
D#|-0-0-0-0-0-0-0-0-0-0-0-0-0---0-0-4-4-4-4-4-4-2-2-2-2-2-2-----0h2-|
A#|-0-0-0-0-0-0-0-0-0-0-0-0-0-------2-----------4-----------0h2-----|
D#|-0-----------0---------------------------------------------------|

d#|-0-0-0-0-0-0-0-0-0-0-0-0-0---0-0-0-0-0-0-0-0-0-0-0-0-0-0---------|
A#|-0-0-0-0-0-0-0-0-0-0-0-0-9\--0-0-0-0-0-0-0-0-0-0-0-0-0-0---------|
G |-0-0-0-0-0-0-0-0-0-0-0-0-8\--0-0-5-5-5-5-5-5-5-5-5-5-5-5---------|
D#|-0-0-0-0-0-0-0-0-0-0-0-0-0---0-0-4-4-4-4-4-4-2-2-2-2-2-2-2h4p2---|
A#|-0-0-0-0-0-0-0-0-0-0-0-0-0-------2-----------4---------------5p2-|
D#|-0-----------0---------------------------------------------------|

d#|-0-0-0-0-0-0-0-0-0-0-0-0-0---0-0-0-0-0-0-0-0-0-0-0-0-0-0---------|
A#|-0-0-0-0-0-0-0-0-0-0-0-0-9\--0-0-0-0-0-0-0-0-0-0-0-0-0-0---------|
G |-0-0-0-0-0-0-0-0-0-0-0-0-8\--0-0-5-5-5-5-5-5-5-5-5-5-5-5---------|
D#|-0-0-0-0-0-0-0-0-0-0-0-0-0---0-0-4-4-4-4-4-4-2-2-2-2-2-2-----0h2-|
A#|-0-0-0-0-0-0-0-0-0-0-0-0-0-------2-----------4-----------0h2-----|
D#|-0-----------0---------------------------------------------------|

d#|-0-0-0-0-0-0-0-0-0-0-0-0-0---0-0-0-0-0-0-0-0-0-0-0-0-0-0---------|
A#|-0-0-0-0-0-0-0-0-0-0-0-0-9\--0-0-0-0-0-0-0-0-0-0-0-0-0-0---------|
G |-0-0-0-0-0-0-0-0-0-0-0-0-8\--0-0-5-5-5-5-5-5-5-5-5-5-5-5-----0-0-|
D#|-0-0-0-0-0-0-0-0-0-0-0-0-0---0-0-4-4-4-4-4-4-2-2-2-2-2-2-----0-0-|
A#|-0-0-0-0-0-0-0-0-0-0-0-0-0-------2-----------4---------------0-0-|
D#|-0-----------0---------------------------------------------------|

                           Guitar 2
                    (same as in [Chorus 1])

[Bridge]
d#|-0-------------------------------0-------------------------------|
A#|-0-------------------------------0-------------------------------|
G |-1-------------------------------3-------------------------------|
D#|-0-------------------------------2-------------------------------|
A#|-2-------------------------------4-------------------------------|
D#|-2---------------------------------------------------------------|

d#|-0---0-0-0---0-0-0-0-0-0-0---0-0-0---0-0-0-0-0---0-0-0-0-0-0-0-0-|
A#|-2---2-2-2---2-2-2-2-2-2-2---2-2-0---0-0-0-0-2---2-2-2-2-2-2-2-2-|
G |-0---0-0-0---0-0-0-0-0-0-0---0-0-3---3-3-3-3-0---0-0-0-0-0-0-0-0-|
D#|-0---0-0-0---0-0-0-0-0-0-0---0-0-2---2-2-2-2-0---0-0-0-0-0-0-0-0-|
A#|-2-----------2-----------2-------4-----------2-----------2-------|
D#|-----------------------------------------------------------------|

d#|-0---0-0-0-0-0-0-0-0-0-0-0-0-0-0-0---0-0-0-0-0-0-0-0-0-0-0-0-0-0-|
A#|-0---0-0-0-0-0-0-0-0-0-0-0-0-0-0-0---0-0-0-0-0-0-0-0-0-0-0-0-0-0-|
G |-1---1-1-1-1-1-1-1-1-1-1-1-1-1-1-3---3-3-3-3-3-3-3-3-3-3-3-3-3-3-|
D#|-2---2-2-2-2-2-2-2-2-2-2-2-2-2-2-2---2-2-2-2-2-2-2-2-2-2-2-2-2-2-|
A#|-2---2-2-2-2-2-2-2-2-2-2-2-------4-----------4-----------4-------|
D#|-2-----------2-----------2---------------------------------------|

d#|-0---0-0-0-0-0-0-0-0-0-0-0-0-0-0-0---0-0-0-0-0-0-0-0-0-0-0-0-0-0-|
A#|-2---2-2-2-2-2-2-2-2-2-2-2-2-2-2-2---2-2-2-2-2-2-2-2-2-2-2-2-2-2-|
G |-3---3-3-3-3-3-3-3-3-3-3-3-3-3-3-3---3-3-3-3-3-3-3-3-3-3-3-3-3-3-|
D#|-5---5-5-5-5-5-5-5-5-5-5-5-5-5-5-5---5-5-5-5-5-5-5-5-5-5-5-5-5-5-|
A#|-----------------------------------------------------------------|
D#|-----------------------------------------------------------------|

[Chorus 3]
                           Guitar 1
d#|-0-0-0-0-----0-0-0-0-------------0-0-0-0-----0-0-0-0-------------|
A#|-0-0-0-0-----0-0-0-0-----9\------0-0-0-0-----0-0-0-0-------------|
G |-0-0-0-0-----0-0-0-0-----8\------5-5-5-5-----5-5-5-5-------------| 
D#|-0-0-0-0-----0-0-0-0-------------4-4-4-4-----2-2-2-2---------0h2-|
A#|-0-0-0-0-----0-0-0-0-------------2-2-2-2-----4-4-4-4-----0h2-----|
D#|-0-0-0-0-----0-0-0-0---------------------------------------------|

d#|-0-0-0-0-----0-0-0-0-------------0-0-0-0-----0-0-0-0-------------|
A#|-0-0-0-0-----0-0-0-0-----9\------0-0-0-0-----0-0-0-0-------------|
G |-0-0-0-0-----0-0-0-0-----8\------5-5-5-5-----5-5-5-5-------------|
D#|-0-0-0-0-----0-0-0-0-------------4-4-4-4-----2-2-2-2-----2h4p2---|
A#|-0-0-0-0-----0-0-0-0-------------2-2-2-2-----4-4-4-4---------5p2-|
D#|-0-0-0-0-----0-0-0-0---------------------------------------------|

d#|-0-0-0-0-----0-0-0-0-------------0-0-0-0-----0-0-0-0-------------|
A#|-0-0-0-0-----0-0-0-0-----9\------0-0-0-0-----0-0-0-0-------------|
G |-0-0-0-0-----0-0-0-0-----8\------5-5-5-5-----5-5-5-5-------------|
D#|-0-0-0-0-----0-0-0-0-------------4-4-4-4-----2-2-2-2---------0h2-|
A#|-0-0-0-0-----0-0-0-0-------------2-2-2-2-----4-4-4-4-----0h2-----|
D#|-0-0-0-0-----0-0-0-0---------------------------------------------|

d#|-0-0-0-0-----0-0-0-0-------------0-0-0-0-----0-0-0-0-------------|
A#|-0-0-0-0-----0-0-0-0-----9\------0-0-0-0-----0-0-0-0-------------|
G |-0-0-0-0-----0-0-0-0-----8\------5-5-5-5-----5-5-5-5-------------|
D#|-0-0-0-0-----0-0-0-0-------------4-4-4-4-----2-2-2-2-------0h2p0-|
A#|-0-0-0-0-----0-0-0-0-------------2-2-2-2-----4-4-4-4---0h2-------|
D#|-0-0-0-0-----0-0-0-0---------------------------------------------|

d#|-0-0-0-0-0-0-0-0-0-0-0-0-0---0-0-0-0-0-0-0-0-0-0-0-0-0-0---------|
A#|-0-0-0-0-0-0-0-0-0-0-0-0-9\--0-0-0-0-0-0-0-0-0-0-0-0-0-0---------|
G |-0-0-0-0-0-0-0-0-0-0-0-0-8\--0-0-5-5-5-5-5-5-5-5-5-5-5-5---------|
D#|-0-0-0-0-0-0-0-0-0-0-0-0-0---0-0-4-4-4-4-4-4-2-2-2-2-2-2-----0h2-|
A#|-0-0-0-0-0-0-0-0-0-0-0-0-0-------2-----------4-----------0h2-----|
D#|-0-----------0---------------------------------------------------|

d#|-0-0-0-0-0-0-0-0-0-0-0-0-0---0-0-0-0-0-0-0-0-0-0-0-0-0-0---------|
A#|-0-0-0-0-0-0-0-0-0-0-0-0-9\--0-0-0-0-0-0-0-0-0-0-0-0-0-0---------|
G |-0-0-0-0-0-0-0-0-0-0-0-0-8\--0-0-5-5-5-5-5-5-5-5-5-5-5-5---------|
D#|-0-0-0-0-0-0-0-0-0-0-0-0-0---0-0-4-4-4-4-4-4-2-2-2-2-2-2-2h4p2---|
A#|-0-0-0-0-0-0-0-0-0-0-0-0-0-------2-----------4---------------5p2-|
D#|-0-----------0---------------------------------------------------|

d#|-0-0-0-0-0-0-0-0-0-0-0-0-0---0-0-0-0-0-0-0-0-0-0-0-0-0-0---------|
A#|-0-0-0-0-0-0-0-0-0-0-0-0-9\--0-0-0-0-0-0-0-0-0-0-0-0-0-0---------|
G |-0-0-0-0-0-0-0-0-0-0-0-0-8\--0-0-5-5-5-5-5-5-5-5-5-5-5-5---------|
D#|-0-0-0-0-0-0-0-0-0-0-0-0-0---0-0-4-4-4-4-4-4-2-2-2-2-2-2-----0h2-|
A#|-0-0-0-0-0-0-0-0-0-0-0-0-0-------2-----------4-----------0h2-----|
D#|-0-----------0---------------------------------------------------|

d#|-0-0-0-0-0-0-0-0-0-0-0-0-0---0-0-0-0-0-0-0-0-0-0-0-0-0-0------------------|
A#|-0-0-0-0-0-0-0-0-0-0-0-0-9\--0-0-0-0-0-0-0-0-0-0-0-0-0-0------------------|
G |-0-0-0-0-0-0-0-0-0-0-0-0-8\--0-0-5-5-5-5-5-5-5-5-5-5-5-5------------------|
D#|-0-0-0-0-0-0-0-0-0-0-0-0-0---0-0-4-4-4-4-4-4-2-2-2-2-2-2-----0h2p0--------|
A#|-0-0-0-0-0-0-0-0-0-0-0-0-0-------2-----------4-----------0h2--------------|
D#|-0-----------0------------------------------------------------------------|

                           Guitar 2
 e|-----------------------------------------------------------------|
 B|-----------------------------------------------------------------|
 G|-----------------------------------------------------------------| x2
 D|-----------------------------------------------------------------|
 A|-----------------------------------------------------------------|
 E|-----------------------------------------------------------------|

 e|-----------------------------------------------------------------|
 B|-------3---------2---------------------3---------2---------------|
 G|-----2---------2---------2-----------2---------2---------2-------|
 D|-0---------0---------------------0---------0---------------------|
 A|-----------------------------------------------------------------|
 E|-----------------------------------------------------------------| 
  
 e|-----------------------------------------------------------------| 
 B|-------3---------2-----------------------------------------------|
 G|-----2---------2---------2---------------------------------------|
 D|-0---------0-----------------------------------------------------|
 A|-----------------------------------------------------------------|
 E|-----------------------------------------------------------------|

 e|-----------------------------------3-----3-----2-----5-----------|
 B|---3-----3-----2-----5-----3-------------------------------5-----|
 G|-----2-----2-----2-----2-----2-------4-----4-----2-----2-----2---| x4
 D|-0-----0-----0-----0-----0-----0-0-----0-----0-----0-----0-----0-|
 A|-----------------------------------------------------------------|
 E|-----------------------------------------------------------------|


************************************

| /   slide up
| \   slide down
| h   hammer-on
| p   pull-off
| +   harmonic
| x   Mute note

************************************

[Verse 1]
Said all I want from you is to see you tomorrow
And every tomorrow, maybe you'll let me borrow your heart
And is it too much to ask for every Sunday
And while we're at it, throw in every other day to start

[Pre-Chorus]
I know people make promises all the time
Then they turn right around and break them
When someone cuts your heart open with a knife, now you're bleeding
But I could be that guy to heal it over time
And I won't stop until you believe it
'Cause baby you're worth it

[Chorus]
So don't act like it's a bad thing to fall in love with me
'Cause you might look around and find your dreams come true, with me
Spent all your time and your money just to find out that my love was free
So don't act like it's a bad thing to fall in love with me, me
It's not a bad thing to fall in love with me, me

[Verse 2]
Now how about I'd be the last voice you hear tonight?
And every other night for the rest of the nights that there are
Every morning I just wanna see you staring back at me
'Cause I know that's a good place to start

[Pre-Chorus]
I know people make promises all the time
Then they turn right around and break them
When someone cuts your heart open with a knife, now you're bleeding
Don't you know that I could be that guy to heal it over time
And I won't stop until you believe it
'Cause baby you're worth it

[Chorus]
So don't act like it's a bad thing to fall in love with me
'Cause you might look around and find your dreams come true, with me
Spent all your time and your money just to find out that my love was free
So don't act like it's a bad thing to fall in love with me, me
It's not a bad thing to fall in love with me, me
Not such a bad thing to fall in love with me
(Not such a bad thing to fall in love with me)

[Bridge]
No I won't fill your mind
With broken promises and wasted time
And if you fall, you'll always land right in these arms
These arms of mine

[Chorus]
Don't act like it's a bad thing to fall in love with me
'Cause you might look around and find your dreams come true, with me
Spent all your time and your money just to find out that my love was free
So don't act like it's a bad thing to fall in love with me, me
It's not a bad thing to fall in love with me, me
Not such a bad thing to fall in love with me
Suggest correction
comments
print report bad tab
9 comments total. Showing first comments.
0 reply
rummelteric 10 wrote on July 31 2014, 07:41 pm

On the first guitar part, I find moving your pinky from the 3rd to the 2nd string sounds a little better.

d#|-0-0-0-0-----0-0-0-0-------------0-0-0-0-----0-0-0-0-------------|
A#|-0-0-0-0-----0-0-0-0-----9\------5-5-5-5-----5-5-5-5-------------|
G |-0-0-0-0-----0-0-0-0-----8\------0-0-0-0-----0-0-0-0-------------| x3
D#|-0-0-0-0-----0-0-0-0-------------4-4-4-4-----2-2-2-2---------0h2-|
A#|-0-0-0-0-----0-0-0-0-------------2-2-2-2-----4-4-4-4-----0h2-----|
D#|-0-0-0-0-----0-0-0-0---------------------------------------------|

Thanks for the awesome tab!!!

0 reply
Stefan_P 1,240 wrote on August 1 2014, 01:06 am

You're welcome! Don't know if it sounds better, but in the video you can see that he plays like I tabbed. :)

0 reply
rummelteric 10 wrote on August 1 2014, 06:13 am

I know your exactly right I watched the video before I looked at this tab. Just sounds off to my ears. Keep up with the awesome tabs!

guest
You may want to rate the tab now too:
select rating
Wanna post a correction for this tab? Suggest correction