Oops, an error
Loading. Please wait.

On My Way Tab

version 3
version 3
3,399 views 1 this week
no commentswrite comment
1 2 3 4 5
accurate
x 3
add to favorites
launch autoscroll
font size
0
reset
how to read this tab
guitar tuner
Tab Pro tools
  • play this tab
  • loop segment
  • change instrument
  • show fretboard
  • metronome
×
Best way to learn
"On My Way"
Autoscroll
slow
fast
+/-
esc
set tempo
stop
Contributor
Difficulty
novice
Boyce avenue – On my way 

Tuning : standard
I’m not sure of the chords, it’s not 100% correct, if u have suggestions 
I’m open.

Video: http://www.youtube.com/watch?v=rdO9sPCj2s0 (I don’t play the same
Chords in this video, when I tabbed it, I modified some things)
Intro:


E|-2-------0--------3-------2---0----|
B|-3-------2--------3-------3---3----|
G|-2-------2--------0-------4---2----|  
D|-0-------0--------0-------4---2----|
A|-x-------0--------x-------2---0----|
E|-2----------------3-----------0----|

Verse :
E|-2-------0--------3-------2------0-|
B|-3-------2--------3-------3------3-|
G|-2-------2--------0-------4------2-|  x2
D|-0-------0--------0-------4------2-|
A|-x-------0--------x-------2------0-|
E|-2----------------3--------------0-|


Chorus :

E|-3-------2--------2-------0-------|
B|-3-------3--------3-------3-------|
G|-0-------2--------4-------2-------|  
D|-0-------0--------4-------2-------|
A|-x-------x--------2-------0-------|
E|-3-------2--------x-------0-------|

E|-3-------2----2-------0-------3---2----2--0-|
B|-3-------3----3-------3-------3---3----3--3-|
G|-0-------2----4-------2-------0---0----4--2-|  
D|-0-------0----4-------2-------0---0----4--2-|
A|-x-------x----2-------0-------x---x----2--0-|
E|-3-------2----x-------0-------3---3----x--0-|

Verse  :
E|-2-------0--------3-------2------0-|
B|-3-------2--------3-------3------3-|
G|-2-------2--------0-------4------2-|  x2
D|-0-------0--------0-------4------2-|
A|-x-------0--------x-------2------0-|
E|-2----------------3-------x------0-|

Chorus : 

E|-3-------2^0----2-------0-------|
B|-3-------3-3----3-------3-------|
G|-0-------2-2----4-------2-------|
D|-0-------0-0----4-------2-------|
A|-x-------x-x----2-------0-------|
E|-3-------2-2----x-------0-------|


E|-3-------2^0----2-------0-------3---2----2--0-|
B|-3-------3-3----3-------3-------3---3----3--3-|
G|-0-------2-2----4-------2-------0---0----4--2-|  
D|-0-------0-0----4-------2-------0---0----4--2-|
A|-x-------x-x----2-------0-------x---x----2--0-|
E|-3-------2-2----x-------0-------3---3----x--0-|


Outro :

E|-3-------2^0----2-------0---------3-------2^0----2-------0------|
B|-3-------3-3----3-------3---------3-------3-3----2-------3------|
G|-0-------2-2----4-------2---------0-------2-2----4-------2------|
D|-0-------0-0----4-------2---------0-------0-0----4-------2------|
A|-x-------x-x----2-------0---------x-------x-x----2-------0------|
E|-3-------2-2----x-------0---------3-------2-2----x-------0------|


E|-3-------2^0----2-------0---------3-------2^0----2-------0------|
B|-3-------3-3----3-------3---------3-------3-3----2-------3------|
G|-0-------2-2----4-------2---------0-------2-2----4-------2------|
D|-0-------0-0----4-------2---------0-------0-0----4-------2------|
A|-x-------x-x----2-------0---------x-------x-x----2-------0------|
E|-3-------2-2----x-------0---------3-------2-2----x-------0------|

E|-3---2----2--0-|
B|-3---3----3—-3-|
G|-0---0----4--2-|  
D|-0---0----4--2-|
A|-x---x----2--0-|
E|-3---3----x--0-|

Solo :
E|-5-------2^0----2-------0--------|
B|-3-------3-3----3-------3--------|
G|-0-------2-2----4-------2--------|  
D|-x-------0-0----4-------2--------|
A|-5-------x-x----2-------0--------|
E|-3-------2-2----x-------0--------|

E|-5-------2^0----2-------0-------5--2----2-0-|
B|-3-------3-3----3-------3-------3--3----3-3-|
G|-0-------2-2----4-------2-------0--0----4-2-|  
D|-x-------0-0----4-------2-------0--0----4-2-|
A|-5-------x-x----2-------0-------x--x----2-0-|
E|-3-------2-2----x-------0-------3--3----x-0-|

E|-2-------0--------3-------2---0----|
B|-3-------2--------3-------3---3----|
G|-2-------2--------0-------4---2----|  
D|-0-------0--------0-------4---2----|
A|-x-------0--------x-------2---0----|
E|-2----------------3-----------0----|

E|-2-------0--------3------------------------2|
B|-3-------2--------3-----------3-------2-3--3|
G|-2-------2--------0-------------0----------2|
D|-0-------0--------0---------0-------2------0|
A|-x-------0--------x-------2-------0--------x|
E|-2----------------3------------------------2|
comments
We did not receive enough feedback on this tab! Please rate:
print report bad tab
1 2 3 4 5
I want to post or [tab]
guest
You may want to rate the tab now too:
select rating
Please do not post tabs as comments. Select "correction" instead!