Oops, an error
Loading. Please wait.

On My Way Tab

version 4
version 4
1,216 views 3 this week
no commentswrite comment
1 2 3 4 5
please rate
add to favorites
launch autoscroll
font size
0
reset
how to read this tab
guitar tuner
Autoscroll
slow
fast
+/-
esc
set tempo
stop
Help us to improve Ultimate-Guitar.com Take our survey!
×
Author
Difficulty
intermediate
-------------------------------------------------------------------------------
                             On my way - Boyce Avenue
-------------------------------------------------------------------------------
Tabbed by:Joel Chin
Email:Joel@progressless.com

My first tab so please bear with me! Its not in the same key I think. But still sounds 
fine! Enjoy! Sounds fine in standard tuning too!

Tuning:D G C F A d (Full Step Down)


Intro and Verse:
e|-----0----0----0----0----0------------------------------------------------------|
B|-----0----0----0----0----0------------------------------------------------------|
G|-----9----8----6----9----8------------------------------------------------------|
D|-----9----9----7----9----9------------------------------------------------------|
A|-----7----7----0----x----x------------------------------------------------------|
E|-----0----0----0----9----7------------------------------------------------------|

Chorus:
e|----0-----------0------------------------0------------------------------0----|
B|----0-----------0------------------------0------------------------------0----|
G|----6-----------9------------------------6------------------------------4----|
D|----7-----------9------------------------6------------------------------4----|
A|----0-----------7------------------------4------------------------------2----|
E|----0-----------0------------------------x------------------------------x----|
        Lay down   And come alive in all you've found All you're meant to be
e|---0-----------0---------------0----------------------------------------------|
B|---0-----------0---------------0----------------------------------------------|
G|---2-----------1---------------6----------------------------------------------|
D|---2-----------2---------------6----------------------------------------------|
A|---0-----------2---------------4----------------------------------------------|
E|---x-----------x---------------x----------------------------------------------|
      And for now We'll wait until the morning light
e|----------------------------0--------------------------0---------------------|
B|----------------------------0--------------------------0---------------------|
G|----------------------------4--------------------------2---------------------|
D|----------------------------4--------------------------2---------------------|
A|----------------------------2--------------------------0---------------------|
E|----------------------------x--------------------------x---------------------|
     And close our eyes to see Just close your eyes to see

REPEAT VERSE
REPEAT CHORUS

Bridge:
e|---0----------------------0------------0----------0----------------------------|
B|---0----------------------0------------0----------0----------------------------|
G|---2----------------------1------------6----------4----------------------------|
D|---2----------------------2------------6----------4----------------------------|
A|---0----------------------2------------4----------2----------------------------|
E|---x----------------------0------------x----------x----------------------------|
         When you feel no saving grace I'm on my way On my way

e|---0----------------------0------------0--------------0------------------------|
B|---0----------------------0------------0--------------0------------------------|
G|---2----------------------1------------6--------------4------------------------|
D|---2----------------------2------------6--------------4------------------------|
A|---0----------------------2------------4--------------2------------------------|
E|---x----------------------0------------x--------------x------------------------|
     and when you're bound to second place I'm on my way On my way

e|---0----------------------0------------0------------------0--------------------|
B|---0----------------------0------------0------------------0--------------------|
G|---2----------------------1------------6------------------4--------------------|
D|---2----------------------2------------6------------------4--------------------|
A|---0----------------------2------------4------------------2--------------------|
E|---x----------------------0------------x------------------x--------------------|
      So don't believe it's all in vein Cause I'm on my way On my way

e|---0----------------------0------------0-------------------0-----------0--------|
B|---0----------------------0------------0-------------------0-----------0--------|
G|---2----------------------1------------6-------------------4-----------2--------|
D|---2----------------------2------------6-------------------4-----------2--------|
A|---0----------------------2------------4-------------------2-----------0--------|
E|---x----------------------0------------x-------------------x--------------------|
   the light at the end is worth the pain Cause I'm on my way On my way  Ohhhhhhhh

e|-----0---------------0--------------------------0-------------0----0-----------------|
B|-----0---------------0--------------------------0-------------0----0-----------------|
G|-----9---------------8--------------------------6-------------9----8-----------------|
D|-----9---------------9--------------------------7-------------9----9-----------------|
A|-----7---------------7--------------------------0-------------x----x-----------------|
E|-----0---------------0--------------------------0-------------9----7-----------------|
        I'll be here the moment you come out in white Cause I'm on my way On my way



************************************

| /   slide up
| \   slide down
| h   hammer-on
| p   pull-off
| ~   vibrato
| +   harmonic
| x   Mute note
| b   Bend
| pb  Pre-bend
| br  Bend release
| pbr Pre-bend release
| brb Bend release bend

************************************
Suggest correction
What's this?
You can suggest a correction to this tab. Community and Mods will review your correction and vote to approve or reject it.
comments
We did not receive enough feedback on this tab! Please rate:
print report bad tab
1 2 3 4 5
guest
You may want to rate the tab now too:
select rating
Please do not post tabs as comments. Select "correction" instead!