Oops, an error
Loading. Please wait.

On My Way Tab

version 5
version 5
742 views 1 this week
no commentswrite comment
1 2 3 4 5
please rate
add to favorites
launch autoscroll
font size
0
reset
how to read this tab
guitar tuner
Autoscroll
slow
fast
+/-
esc
set tempo
stop
Help us to improve Ultimate-Guitar.com Take our survey!
×
Author
Boyce Avenue - On my way
Tabbed By Bryan

Standard Tuning (E A D G B E)

Fabian (Electric Guitar)
Daniel (Acoustic Guitar)

Video > http://www.youtube.com/watch?v=zHrq_xncP7E

This tab is not 100% correct
Hope you like it :)

(Fabian Part)

(1.25 - 1.50)
E|-3/10-10-12/7-7-5-3-2/10-10-12/7-7-5-3-2-----|
B|-----------------------------------------(4)-|
G|---------------------------------------------|
D|---------------------------------------------|
A|---------------------------------------------|
E|---------------------------------------------|


 (Fabian Chords) (1.54 - 2.40)
E|-3---2---2---0-------------------------------------------------|
B|-3---3---3---5-------------------------------------------------| 
G|-0---2---4---6-------------------------------------------------|   (5) 
D|-0---0---4---7-------------------------------------------------| (times)
A|-2---0---2---0-------------------------------------------------|
E|-3-------2---x-------------------------------------------------|

 (Fabian Solo) (2.45 - 3.15)
E|-------------------------------------------------------------------------|
B|-10-10-10-10-10-10-12-12-7-7-7-7-7-7-5-5-7-7-7-7-7-7-10-10-5-5-5-3-3-2-2-|
G|-------------------------------------------------------------------------|    (2)
D|-------------------------------------------------------------------------|  (times)
A|-------------------------------------------------------------------------|
E|-------------------------------------------------------------------------|

E|-------------------------------------------------------------------------|
B|-3/15-15-15-15-15-14-14-14-14/12-12-12-12-7-7----------------------------|
G|----------------------------------------------9-7------------------------|    
D|-------------------------------------------------------------------------|  
A|-------------------------------------------------------------------------|
E|-------------------------------------------------------------------------|

(Daniel Part)

 (1.55 - 3.07)
E|-3-3-3-3-3-3-3-3--2-2-2-2-2-2-2-2--2-2-2-2-2-2-2-2--0-0-0-0-0-0-0-0-|
B|-3-3-3-3-3-3-3-3--3-3-3-3-3-3-3-3--3-3-3-3-3-3-3-3--5-5-5-5-5-5-5-5-| 
G|-0-0-0-0-0-0-0-0--2-2-2-2-2-2-2-2--4-4-4-4-4-4-4-4--6-6-6-6-6-6-6-6-|    
D|-0-0-0-0-0-0-0-0--0-0-0-0-0-0-0-0--4-4-4-4-4-4-4-4--7-7-7-7-7-7-7-7-| 
A|-2-2-2-2-2-2-2-2--0-0-0-0-0-0-0-0--2-2-2-2-2-2-2-2--0-0-0-0-0-0-0-0-|
E|-3-3-3-3-3-3-3-3--0-0-0-0-0-0-0-0--2-2-2-2-2-2-2-2--0-0-0-0-0-0-0-0-|

 (3.07 - 3.14)
E|-3-3-3-3-3-3-3-3-3-3-3--2-3--0-0--0-0-|
B|-3-3-3-3-3-3-3-3-3-3-3--3-3--2-2--0-3-|
G|-4-4-4-4-4-4-4-4-4-4-4--4-4--2-2--0-2-|   
D|-5-5-5-5-5-5-5-5-5-5-5--4-4--2-2--0-0-| 
A|-5-5-5-5-5-5-5-5-5-5-5--2-2--0-0--0-0-|
E|-3-3-3-3-3-3-3-3-3-3-3--2-2--0-0--0-0-|
Suggest correction new What's this?
You can suggest a correction to this tab. Community and Mods will review your correction and vote to approve or reject it.
comments
We did not receive enough feedback on this tab! Please rate:
print report bad tab
1 2 3 4 5
guest
You may want to rate the tab now too:
select rating
Please do not post tabs as comments. Select "correction" instead!