Oops, an error
Loading. Please wait.

On My Way tab

version 6
version 6
512 views 1 this week
no commentswrite comment
1 2 3 4 5
x 4
add to favorites
×
Save as Personal and add changes to this tab that will be seen only by you. Learn more ›
×
You can save this tab as Personal to edit and correct it or add notes. All changes will be seen only by you. Learn more »
launch autoscroll
font size
0
reset
how to read this tab
guitar tuner
edit
Autoscroll
slow
fast
+/-
esc
set tempo
stop
Author
Difficulty
Boyce Avenue - On my way

Please comment and rate, any corrections are welcome. :)



Intro:

   D               D/C#            G               Bm      A
E|-2---------------2---------------3---------------2-------0-------|
B|-3---------------3---------------3---------------3-------2-------|
G|-2---------------2---------------0---------------4-------2-------|
D|-0---------------------------------------------------------------|
A|-----------------4-------------------------------2-------0-------|
E|---------------------------------3-------------------------------|


Verse 1:

   D               D/C#            G               Bm      A
E|-2-----------2---2---------------3---------------2-------0-------|
B|-3---------------3-----------3---3---------------3-------2-------|
G|-2---------------2---------------0-----------0---4-------2-------| x2
D|-0---------------------------------------------------------------|
A|-----------------4-------------------------------2-------0-------|
E|---------------------------------3-------------------------------|


Chorus:
 
   G               D               Bm             Asus4  A    Asus2
E|-3---------------2---------------2---------------0-----0-----0---|
B|-3---------------3-----------3---3-----------3---3-----2-----0---|
G|-0-----------0---2---------2-----4---------------2---2-2-----2---| x2
D|-----------------0-------------------------4-------2-------------|
A|---------------------------------2---------------0---------------|
E|-3---------------------------------------------------------------|

  G                     Bm  A
|-3-----------3-2-------2---0-|
|-3---------------------3---2-|
|-0---0-----2-----------4---2-|
|-------0---------------------|
|---2-------------------2---0-|
|-3---------------------------|


Verse 2:

   D               D/C#            G               Bm      A
E|-2-----------2---2---------------3---------------2-------0-------|
B|-3---------------3-----------3---3---------------3-------2-------|
G|-2---------------2---------------0-----------0---4-------2-------| x2
D|-0---------------------------------------------------------------|
A|-----------------4-------------------------------2-------0-------|
E|---------------------------------3-------------------------------|


Chorus(strum):

   G               D               Bm             Asus4  A    Asus2
E|-3---------------2---------------2---------------0-----0-----0---|
B|-3---------------3---------------3---------------3-----2-----0---|
G|-0---------------2---------------4---------------2-----2-----2---| x2
D|-0---------------0---------------4---------------2-----2-----2---|
A|-2-------------------------------2---------------0-----0-----0---|
E|-3---------------------------------------------------------------| 
                          
  G                     Bm  A     
|-3---------------------2---0-|    
|-3---------------------3---2-|     
|-0---------------------4---2-|
|-0---------------------4---2-|
|-2---------------------2---0-|
|-3---------------------------|


Bridge(strum):

   G               D               Bm             Asus4  A    Asus2
E|-3---------------2---------------2---------------0-----0-----0---|
B|-3---------------3---------------3---------------3-----2-----0---|
G|-0---------------2---------------4---------------2-----2-----2---| x4
D|-0---------------0---------------4---------------2-----2-----2---|
A|-2-------------------------------2---------------0-----0-----0---|
E|-3---------------------------------------------------------------| 
                          
  G                     Bm  A     
|-3---------------------2---0-|    
|-3---------------------3---2-|     
|-0---------------------4---2-|
|-0---------------------4---2-|
|-2---------------------2---0-|
|-3---------------------------|


Solo(chorus chords x2 + chorus fill= G, Bm-A-D):

E|------------------------------------------------------------------------------------------|
B|-10-10-10-10-10-10/12-12-12\7-7-7-7-7-7-7\5-5-5/7-7-7-7-7-7-7/10-10-10\5-5-5-5-3-3-2-2-0--|
G|------------------------------------------------------------------------------------------|
D|------------------------------------------------------------------------------------------|
A|------------------------------------------------------------------------------------------|
E|------------------------------------------------------------------------------------------|

E|------------------------------------------------------------------------------------------|
B|-/10-10-10-10-10-10/12-12-12\7-7-7-7-7-7-7\5-5-5/7-7-7-7-7-7-7/10-10-10\5-5-5-5-3-3-2-2-0-|
G|------------------------------------------------------------------------------------------|
D|------------------------------------------------------------------------------------------|
A|------------------------------------------------------------------------------------------|
E|------------------------------------------------------------------------------------------|

E|-----------------------------------------------------------------------|
B|-/15-15-15-15-15-14-14-14-14\12-12-12-7-7-5-5-3-3----------------------|
G|-----------------------------------------------------------------------|
D|-----------------------------------------------------------------------|
A|-----------------------------------------------------------------------|
E|-----------------------------------------------------------------------|


Outro:

   D               D/C#            G               Bm      A
E|-2---------------2---------------3---------------2-------0-------|
B|-3---------------3---------------3---------------3-------2-------|
G|-2---------------2---------------0---------------4-------2-------|
D|-0---------------------------------------------------------------|
A|-----------------4-------------------------------2-------0-------|
E|---------------------------------3-------------------------------|

   D               D/C#            G               Bm      A         D
E|-2---------------2---------------3---------------2-------0---------2---|
B|-3---------------3---------------3---------------3-----3-2---------3---|
G|-2---------------2---------------0---------------4---4---2-2---2---2---|
D|-0-------------------------------------------------4---------2-----0---|
A|-----------------4-------------------------------2-------0-------------|
E|---------------------------------3-------------------------------------|


Lyric:

I wasn't there the moment
You first learned to breathe
But i'm on my way, on my way
I wasn't there the moment
You got off your knees
But i'm on my way, on my way

Lay down
And come alive in all you've found, All you're meant to be
For now
Wait until the morning light
Close our eyes to see
Just close your eyes to see

A tear must have formed in my eye
When you had your first kiss
But I'm on my way, on my way
So leave a space deep inside for everything I'll miss
Cuz I'm on my way, on my way

Lay down
And come alive in all you've found
All you're meant to be
For now
Wait until the morning light
Close our eyes to see
Just close your eyes to see

And when you feel no saving grace
Well I'm on my way, on my way
And when you're bound to second place
Well I'm on my way, on my way
So don't believe it's all in vain
Cuz I'm on my way, on my way
The light at the end is worth the pain
Cuz I'm on my way, on my way

I'll be there the morning
you come out and wait
Cuz I'm on my way, on my way

            
            
Suggest correction
Creating personal tab
Creating personal tab
You can edit any tab online and save it as your Personal.

You can edit, replace or remove any tab part or add personal notes – all changes will be seen only by you.

Personal tabs can be accessed anytime from any device, even offline.
Learn more »
comments
print report bad tab
guest
You may want to rate the tab now too:
select rating
Wanna post a correction for this tab? Suggest correction