Oops, an error
Loading. Please wait.

Only Girl Tab

version 2
version 2

Whole song

20,395 views 18 this week
2 commentsread comments
1 2 3 4 5
excellent!
x 5
add to favorites
launch autoscroll
font size
0
reset
how to read this tab
guitar tuner
Autoscroll
slow
fast
+/-
esc
set tempo
stop
Help us to improve Ultimate-Guitar.com Take our survey!
×
Contributor
Difficulty
Capo
spike46 305
intermediate
2nd fret
||===========================================================||
||  Only Girl (In the World) – Boyce Avenue [Rihanna Cover]  ||
||===========================================================||

I saw that most of the tabs on here are in non-standard tunings so I decided to 
transpose them into standard tuning.
This is therefore a combination of the other tabs on here just collated and in standard tuning.
Hope it helps, any queries ask me at tomfin@hotmail.co.uk

Capo on 2nd Fret (everything relative to Capo)

Verse Chords
D:  x5422x
F#m:  24422x
B: 54222x

Chorus/Bridge Chords:
D: x0020x
G: 02210x
F#m: 24420x
B: 54x20x or x0220x

Intro:
    D              F#m         B
e|----------------------------------------|
B|------2-0---3\2-------2-0--------2-0----|
G|----2-----2---------------2----------2--| (x2)
D|--0-----------------2----------2--------|
A|-----------------------------0----------|
E|------------------2---------------------|

Verse 1:
    D         F#m        B
e|--------------------------------|
B|--------2--------------------0--|
G|------2------------2-------2----|
D|----4------------2--------------| (x4)
A|--5----------4h5-------4h5------|
E|-------------2---------5--------|

              D                      F#m      B
Im gonna love you, when our time is right
             D                        F#m      B
Be thinkin of you, every day and every night
                   D                                         
To think youre somewhere in this world and 
                              F#m      B
someday I will make you my wife
         D                                                   
So every time were not together, I hope you know that youll be 
     F#m       B
alright,   cause I


Chorus 1:
    D                    F#m          B
e|-----------------------------------------------|
B|--3---3-2---0---0-------3---3-2-----3---3-2----|
G|----2-----2---6-----------2-----2-----2-----2--|
D|--0---------------4----------------------------| (x4)
A|------------------------------------0----------|
E|------------------------2----------------------|

            D                                               F#m      
Im gonna make you feel like youre the only girl in the world
   B                           D
Like youre the only one that Ill ever love
         F#m    B
Like youre the only one who knows my heart
       D                                      F#m
Ohh, Like youre the only one thats in command
 B          D
Cause youre the only one who understands
                             F#m     B
How to make me feel like a man

Verse 2:
    D         F#m        B
e|--------------------------------|
B|--------2--------------------0--|
G|------2------------2-------2----|
D|----4------------2--------------| (x4)
A|--5----------4h5-------4h5------|
E|-------------2---------5--------|

                  D                     F#m     B
And when youre lonely, Ill keep you company
             D                               F#m      B
Like this world was only made for you and me
              D                                           F#m   B
And when it doesnt feel right with another I hope you believe
            D                                             F#m   B     
That in a world with no light, I will all that you need, to see

Chorus 2:
    D F#m B
e|-----------|
B|--0--0--0--|
G|--2--2--2--|
D|--0--4--x--| (x2)
A|--0--4--4--|
E|-----2--5--|
    D                       E    F#m             B
e|-----------------------------------------------------------------|
B|--------2-----------------------------2-----------2---0----------|
G|------2---------------------------------------------1------------|
D|----2-------------------------------2----------------------------|
A|--5-5-5-5-5-5-5-5-5-5-5-5---------4-------------0-0-0-0-0-0-0-0--|
E|--------------------------0-0-0-2-2-2-2-2-2-2-2------------------|

            D                                               F#m      
Im gonna make you feel like youre the only girl in the world
   B                           D
Like youre the only one that Ill ever love
         F#m    B
Like youre the only one who knows my heart
       D                                      F#m
Ohh, Like youre the only one thats in command
 B          D
Cause youre the only one who understands
          F#m             B
How to make me feel like a man

Bridge:
    D        E       F#m       B
e|--------------------------------------|
B|-----------------------------------0--|
G|--------2--------2--------2----2------|
D|------4------2-6------2-6--------2----| (x4)
A|--5-5------------------------0--------|
E|-----------0--------2-----------------|

D     E    F#m    B
Da da da da
D     E    F#m    B
Da da da da
D     E    F#m    B
Da da da da
D     E    F#m    B
Da da da da

Piano Solo:
    D        E       F#m       B
e|--------------------------------------|
B|-----------------------------------0--|
G|--------2--------2--------2----2------|
D|------4------2-6------2-6--------2----| (x4)
A|--5-5------------------------0--------|
E|-----------0--------2-----------------|

Final Chorus:
       D            E    F#m              B
   e|-----------------------------------------------|
   B|-----------------------------------------------|
P  G|-------------------------(11s)-----------------|
A  D|--777777777777/9999/1111111111111111\22222222--|
L  A|--555555555555/7777/9-9-9-9-9-9-9-9-\00000000--|
M  E|-----------------------------------------------|
       D            E    F#m               B
M  e|-----------------------------------------|
U  B|------------------------(11s)---------0~-|
T  G|-------7777777/9999/1111111111111111\-2~-|
E  D|--777777777777/9999/1111111111111111\-2~-|
   A|--555555555555/7777/9-9-9-9-9-9-9-9-\-0~-|
   E|-----------------------------------------|
    D            E     F#m       B
e|-----------------------------------------|
B|--000000000000-0000--00000000--00000000--|
G|--222222222222-1111--22222222--22222222--|
D|--000000000000-2222--44444444--22222222--| (x2)
A|--000000000000-2222--44444444--44444444--|
E|---------------0000--22222222--55555555--|

            D                                E           F#m          
Im gonna make you feel like youre the only girl in the world
B                         D
Like youre the only one that Ill ever love
     E         F#m    B
Like youre the only one who knows my heart
       D                          E       F#m
Ohh, Like youre the only one thats in command
B          D
Cause youre the only one who understands
                      E       F#m
How to make me feel like a man


Outro:
e|-----------------------|
B|--0000-0000-0000-0000--|
G|--2222-1111-2222-2222--|
D|--0000-2222-4444-xxxx--| (x3)
A|--0000-2222-4444-4444--|
E|-------0000-2222-5555--|

e|----------------|
B|--0000-0000-0~~-|
G|--2222-1111-2~~-|
D|--0000-2222-4~~-|
A|--0000-2222-4~~-|
E|-------0000-2~~-|

D     E    F#m    B
Da da da da
D     E    F#m    B
Da da da da
D     E    F#m    B
Da da da da
D     E    F#m (let ring)
Da da da da
comments
print report bad tab
2 comments total.
+1 reply
Jake Machado 660 wrote on April 27 2011, 04:32 am

Nailed it! Great Job!

0 reply
guitargirl1989 11 wrote on October 30 2011, 06:35 pm

Thanks for putting this song in standard tuning, sounds perfect!

I want to post or [tab]
guest
You may want to rate the tab now too:
select rating
Please do not post tabs as comments. Select "correction" instead!