Oops, an error
Loading. Please wait.

Rolling In The Deep Tab

version 1
version 1

Whole song

Interactive

30,067 views 18 this week
no commentswrite comment
1 2 3 4 5
1 last vote to show rating
add to favorites
launch autoscroll
font size
0
reset
how to read this tab
guitar tuner
Autoscroll
slow
fast
+/-
esc
set tempo
stop
Help us to improve Ultimate-Guitar.com Take our survey!
×
Author
Difficulty
novice
Notes up above the tabs are bass notes
just in case you might wanna pop a bass in there
or maybe another acoustic with simple chords.
Hope you enjoy and if you wish to see a video
of this tab go to
(https://www.youtube.com/watch?
v=RBeEP8Xnj0Q&feature=plcp&context=C3e8befdUDOEgsToPDskJX16rcnW2znc5BVel-amXC)
and subscribe to FcCovers for more tabs to come!

guitar tuning: STANDARD

INTRO
   Em         D          C          D
e-----------------------------------------------|
B--------0----------3----------0----------3-----|
G------0----------2----------0----------0---0---|
D----2----------0----------2----------4-------4-|
A-------------2----------3----------5-----------|
E--0--------------------------------------------|
   Em         D          C          D             Em
e--------------------------------------------------0----|
B--------0----------3----------0----------3--------0----|
G------0----------2----------0----------0---0------0----|
D----2----------0----------2----------4-------4----2----|
A-------------2----------3----------5--------------2----|
E--0-----------------------------------------------0----|

NOW THE STRUMMING STARTS

Alejandro(main guy)'s guitar
     Em
e----x-x-x-x-x-x-x-x-x-x-x--------|
B----x-x-x-x-x-x-x-x-x-x-x--------|
G----x-x-x-x-x-x-x-x-x-x-x--------|
D----9-9-9-9-9-7-9-9-9-9-9--------|
A----7-7-7-7-7-7-7-7-7-7-7--------|
E----x-x-x-x-x-x-x-x-x-x-x--------|

(note: strumming pattern and timing is for you to check out... im writing out the chords only)

VERSE:
"there's a fire...
    Em   F#m  B  Dm   B  Dm
e----x----x---x---x---x---x--------|
B----x----x---x---x---x---x--------|
G----x----x---x---x---x---x--------|
D----9----7---4---7---4---7--------|
A----7----9---2---5---2---5--------|
E----x----x---x---x---x---x--------|

PRE-CHORUS:
(this what the electric guitar does...Alejandro keeps on playing the same thing from the verse)
"the scars of your love...
e------------------------------------------|
B---8--7--3-----3--5--5s8--7--3-5-7-8-10---|
G------------4~----------------------------|
D------------------------------------------|
A------------------------------------------|
E------------------------------------------|

CHORUS:
Alejandro's guitar
  Em   D   C   D    Em   D   C   C
e--0---2---0---2--|--0---2---0---0--|
B--0---3---1---3--|--0---3---1---1--|
G--0---2---0---2--|--0---2---0---0--|
D--2---0---2---0--|--2---0---2---2--|
A--2---0---3---0--|--2---0---3---3--|
E--0---X---X---X--|--0---X---X---X--|

electric guitar
e---------------------------------|
B---7---8---7---8---7---8---------|
G-----7---7---7---7---7---7-------|
D---------------------------------|
A---------------------------------|
E---------------------------------|

VERSE

PRE-CHORUS

CHORUS

MUTED VERSE (only drums)

PRE-CHORUS

CHORUS
end with
    Em
e---0---|
B---0---|
G---0---|
D---2---|
A---2---|
E---0---|

That's about it. you might want to add some variations here and there during the chorus 
so it sounds a little bit better but its up to you. ENJOY! cuz I did.
Suggest correction
Give kudos to tab author, rate the tab!
1 2 3 4 5
comments
print report bad tab
guest
You may want to rate the tab now too:
select rating
Wanna post a correction for this tab? Suggest correction