Oops, an error
Loading. Please wait.

Set Fire To The Rain Tab

version 1
version 1

Intro

15,621 views 6 this week
3 commentsread comments
1 2 3 4 5
x 4
add to favorites
launch autoscroll
font size
0
reset
how to read this tab
guitar tuner
×
Best way to learn
"Set Fire To The Rain"
Autoscroll
slow
fast
+/-
esc
set tempo
stop
Difficulty
intermediate
Its something like that:

-------------------------------------------------------------------------------|
-7---7------7----7>8>7--5---5----8---------------------------------------------|
---7---7------7-----------6---6------------------------------------------------|
-------------------------------------------------------------------------------|
------------5----5-------------------------------------------------------------|
-7----------------------5--------8---------------------------------------------|


It sound like Boyce Avenue cover but its not 100% right.
Suggest correction
comments
print report bad tab
3 comments total.
+2 reply
Tyler_95 10 Jul 03, 2012 07:23 AM

could you possibly do the whole song for me pleaseeeee?

+2 reply
renegade1812 25 Jan 21, 2013 09:18 AM

try the following:

e|-----------------------------------|
B|-5---5---5---5/6/5-3---3---6---6---|
G|---5---5---5---------4---4---7---7-|
D|---------------------------0-------|
A|-0-------3-------------------------|
E|-------------------3---------------|


Greetz
Rob

0 reply
golldenfalcon 23 Jul 16, 2015 12:22 PM

Lack of accuracy. Clearly wrong. There is another more accurate version and this one is incorrect and not how Alejandro plays it. Not very good.

guest
You may want to rate the tab now too:
select rating
Wanna post a correction for this tab? Suggest correction