Oops, an error
Loading. Please wait.

She Will Be Loved Tab

version 2
version 2

Whole song

28,145 views 1 this week
no commentswrite comment
1 2 3 4 5
please rate
add to favorites
launch autoscroll
font size
0
reset
how to read this tab
guitar tuner
Autoscroll
slow
fast
+/-
esc
set tempo
stop
Help us to improve Ultimate-Guitar.com Take our survey!
×
Author
Difficulty
novice
Band: Boyce Avenue (Maroon 5 Cover)
Song: She Will Be Loved
Tabbed by: Scott Naylor

Tunning: E A D G B e


Intro:

e|-----------------------------1---------------------------|
B|----3-3-3-3-------2-2---2------3-3-3-3-------2-2----2----|
G|----2-2-2-2-------0-0-0--------2-2-2-2-------0-0--0------|
D|----------------2------2-------------------2-------2-----|
A|--2-----2-2---0-----0-------2------2-2---0-----0---------|
E|---------------------------------------------------------|


Verse:

e|-----------------------------1---------------------------|
B|----3-3-3-3-------2-2---2------3-3-3-3-------2-2----2----|
G|----2-2-2-2-------0-0-0--------2-2-2-2-------0-0--0------|
D|----------------2------2-------------------2-------2-----| x4
A|--2-----2-2---0-----0-------2------2-2---0-----0---------|
E|---------------------------------------------------------|


Chorus:

e|--------------------------------------------------------------|
B|--3--2--3-----3--2-----3-----2h3------3p2------2-3--3p2-------|
G|--2--2--4--0--2--2--4--0--------------------------------2-----|
D|--0--2--4--0--0--2--4--0----0-------2--------4------------0---|  
A|--------------------2-----0-------0--------2------------------|
E|--------------------------------------------------------------|


Verse:

e|-----------------------------1---------------------------|
B|----3-3-3-3-------2-2---2------3-3-3-3-------2-2----2----|
G|----2-2-2-2-------0-0-0--------2-2-2-2-------0-0--0------|
D|----------------2------2-------------------2-------2-----| x3
A|--2-----2-2---0-----0-------2------2-2---0-----0---------|
E|---------------------------------------------------------|

e|-----------------------------1---------------------------|
B|----3-3-3-3-------2-2---2------3-3-3-3---2~--------------|
G|----2-2-2-2-------0-0-0--------2-2-2-2---0~--------------|
D|----------------2------2-----------------2~--------------|
A|--2-----2-2---0-----0-------2------2-2-------------------|
E|---------------------------------------------------------|


Chorus pt. 1:

e|--------------------------------0----------------------------------0----|
B|------3-------3-2-------3-----3---3-------3------3-2-------3-----3------|
G|----2-------2---------2-----0-----------2------2---------2-----2--------|
D|--0-------2---------4-----0-----------0------2---------4-----0----------|
A|--------0---------2------------------------0---------2------------------|
E|------------------------------------------------------------------------|


Chorus pt. 2:

e|-----------------------|
B|--8p7-----------3-5----|
G|------7-------2--------| x3
D|--------7---2----------|
A|-----------------------|
E|-----------------------|

e|-----------------------|
B|--8p7-----------2-3----|
G|------7-------2--------| 
D|--------7---2----------|
A|-----------------------|
E|-----------------------|


Bridge:

e|-----------------------------------------|
B|-----------------------------------------|
G|--6-6-6-7--6-6-6-7--6-6-6-7--9-7-6-7-----|
D|---7-7-7-7--7-7-7-7--7-7-7-7--7-7-7-7----|  
A|-----------------------------------------|
E|-----------------------------------------|

e|------------------------------------------|
B|------------------------------------------|
G|--6-6-6-7--6-6-6-7--6-6-6-7--9-7---6h7----|
D|---7-7-7-7--7-7-7-7--7-7-7-7--7-7---------|  
A|------------------------------------------|
E|------------------------------------------|

e|------------------|
B|------------------|
G|----6-----7h6-----|
D|---7-7-------7----|  
A|--0---------------|
E|------------------|


Verse: x1


Chorus pt. 1: x1


Chorus pt. 2: x1


Solo:

e|--5-------------------------5----------------------|
B|------5-5h7--------------------5-5h7---7-7-8-8-----|
G|----7-------7s6-4s2-----------7---------7-7-7-7----|
D|--------------------4p2-4s7------------------------|  
A|---------------------------------------------------|
E|---------------------------------------------------|


Chorus:

e|--5-5-5-5------------5-5-5-5----------------|
B|-----------7-7-5-5------------7-7-8-8--7~---|
G|---7-7-7-7--7-7-6-6---7-7-7-7--7-7-7-7-7~---|
D|--------------------------------------------|
A|--------------------------------------------|
E|--------------------------------------------|


   s - slide
   h - hammer on
   p - pull off
   ~ - hold note
Suggest correction
What's this?
You can suggest a correction to this tab. Community and Mods will review your correction and vote to approve or reject it.
comments
We did not receive enough feedback on this tab! Please rate:
print report bad tab
1 2 3 4 5
guest
You may want to rate the tab now too:
select rating
Please do not post tabs as comments. Select "correction" instead!