Oops, an error
Loading. Please wait.

Shimmer Tab

19,596 views 27 this week
no commentswrite comment
1 2 3 4 5
excellent!
x 7
add to favorites
launch autoscroll
font size
0
reset
how to read this tab
guitar tuner
Autoscroll
slow
fast
+/-
esc
set tempo
stop
Help us to improve Ultimate-Guitar.com Take our survey!
×
Difficulty
Tuning
advanced
D# G# C# F# A# D#
Tabbed by: Wesley dos Santos Conrado
e-mail: wesley_sk@hotmail.com
Me playing the song: http://www.youtube.com/watch?v=1yw5acouQz8

Tuning: D# G# C# F# A# D# (half-step down)

Verse:

|--0---0---0-/-0-\-0--|
|--5---7---7-/-8-\-7--|
|--0---0---0-/-0-\-0--| (listen to the music to learn how to run the slides)
|--5---7---7-/-9-\-7--|
|--3---5---5-/-7-\-5--|
|---------------------|


Pré-Chorus:

   She says she's ashamed...And can she take me for a while...
|--0--------------0--0--------------0---0--------0------0----0--|
|--5--------------7--8--------------7---5--------7------8----7--|
|--0--------------0--0--------------0---0--------0------0----0--|
|--5--------------7--9--------------7---5--------7------9----7--|
|--3--------------5--7--------------5---3--------5------7----5--|
|---------------------------------------------------------------|

And can i be a friend, we'll forget the past, But maybe i'm not able...
|---0-------------0----0-/-0-\-0--------0-----------------------0---------0~~-|
|---5-------------7----7-/-8-\-7--------5-----------------------7---------7~~-|
|---0-------------0----0-/-0-\-0--------0-----------------------0---------0~~-|let's ring the last
|---5-------------7----7-/-9-\-7--------5-----------------------7---------7~~-|
|---3-------------5----5-/-7-\-5--------3-----------------------5---------5~~-|
|-----------------------------------------------------------------------------|


Chorus:
                                                        (2x)
|-----0---0---3-3----------------0---3-3---3~~--|--0---0---0-/-0-\-0--|
|-----0---1---3-3---/-8--\-7--\--1---3-3---3~~--|--5---7---7-/-8-\-7--|
|-----0---2---0-0---/-9--\-7--\--2---0-0---0~~--|--0---0---0-/-0-\-0--|
|-----2---2---0-2---/-9--\-7--\--2---0-2---2~~--|--5---7---7-/-9-\-7--|
|-----2---0---2-3----------------0---2-3---3~~--|--3---5---5-/-7-\-5--|
|--0--0-----------------------------------------|---------------------|

Verso

Pré-Chorus

Chorus

Pós-Chorus:

     It's too far away for me to hold...
|--0-----------0----0--------0----0--------0------0----0--|
|--5-----------7----8--------7----5--------7------8----7--|
|--0-----------0----0--------0----0--------0------0----0--| 2x
|--5-----------7----9--------7----5--------7------9----7--|
|--3-----------5----7--------5----3--------5------7----5--|
|---------------------------------------------------------|

Bridge

|--0----0--0--0--0--0--0--|
|--7--/-10-9--10-9--10-9--|
|--7--/-9--9--9--9--9--9--|4x
|--0----0--0--0--0--0--0--|
|--0----0--0--0--0--0--0--|
|-------------------------|

Pós-Chorus 4x

End:
   
        Guess i'll let it go
|--0---0~~----------------0~~----|
|--7---7~~----------------0~~----|
|--0---0~~----------------0~~----|
|--7---7~~----------------2~~----|
|--5---5~~----------------3~~----|
|--------------------------------|
comments
print report bad tab
I want to post or [tab]
guest
You may want to rate the tab now too:
select rating
Please do not post tabs as comments. Select "correction" instead!