Oops, an error
Loading. Please wait.

Skyscraper Tab

version 1
version 1

Whole song

74,772 views 21 this week
3 commentsread comments
1 2 3 4 5
excellent!
x 17
add to favorites
launch autoscroll
font size
0
reset
how to read this tab
guitar tuner
Autoscroll
slow
fast
+/-
esc
set tempo
stop
Help us to improve Ultimate-Guitar.com Take our survey!
×
Author
Boyce Avenue & Megan Nicole – Skyscraper (Demi Lovato Cover)
http://www.youtube.com/watch?v=JQ3r-rXUABI 
Tabbed by: Esperance

Support Boyce Avenue - Those guys really know how to make great music!

If you have any corrections/suggestions please drop me a line and feel free to rate this tab :)
>Florian-Le@live.de<

Tuning:
Standard(EADGBe)

x = mute
<>= harmonics
Verse 1:
---------------------------------------------------------|
-0-0-0-0-0-0-0-1-1-1-1-1-1-1-0-0-0-0-0-0-0-3-3-3-3-3-3-3-|
-0-0-0-0-0-0-0-0-0-0-0-0-0-0-0-0-0-0-0-0-0-2-2-2-2-2-2-2-|
-0-0-0-0-0-0-0-2-2-2-2-2-2-2-2-2-2-2-2-2-2-0-0-0-0-0-0-0-|3x
---------------------------------------------------------|
-3-------------3-------------3-------------3-------------|

----------------------------------------------|
-0-0-0-0-0-0-0-1-1-1-1-1-1-1-0-0-0-0-0-0-0-3~-|
-0-0-0-0-0-0-0-0-0-0-0-0-0-0-0-0-0-0-0-0-0-2~-|
-2-2-2-2-2-2-2-2-2-2-2-2-2-2-0-0-0-0-0-0-0-0~-|
----------------------------------------------|
-3-------------3-------------3-------------3~-|

Chorus 1:
-----------------------------------------------|
-0---1---0---3--------0-------1-------0------3-|
-0---2---0---2------0-------0-------0------2---|
-0---0---2---0----0-------2-------2------0-----|
------------------------3----------------------|
-3---3---3---3---3--------------0-------2------|

-------------------------------------------|
-0---1---0---3--------0-------1-------0-3~-|
-0---2---0---2------0-------0-------0---2~-|
-0---0---2---0----0-------2-------2--------|
------------------------3------------------|
-3---3---3---3---3--------------0----------|

Verse 2:
---------------------------------------------------------|
-0-0-0-0-0-0-0-1-1-1-1-1-1-1-0-0-0-0-0-0-0-3-3-3-3-3-3-3-|
-0-0-0-0-0-0-0-0-0-0-0-0-0-0-0-0-0-0-0-0-0-2-2-2-2-2-2-2-|
-0-0-0-0-0-0-0-2-2-2-2-2-2-2-2-2-2-2-2-2-2-0-0-0-0-0-0-0-|2x
---------------------------------------------------------|
-3-------------3-------------3-------------3-------------|

----------------------------------------------|
-0-0-0-0-0-0-0-1-1-1-1-1-1-1-0-0-0-0-0-0-0-3~-|
-0-0-0-0-0-0-0-0-0-0-0-0-0-0-0-0-0-0-0-0-0-2~-|
-2-2-2-2-2-2-2-2-2-2-2-2-2-2-0-0-0-0-0-0-0-0~-|
----------------------------------------------|
-3-------------3-------------3-------------3~-|

Chorus 2:
-----------------------------------------------|
-0---1---0---3--------0-------1-------0------3-|
-0---2---0---2------0-------0-------0------2---|
-0---0---2---0----0-------2-------2------0-----|
------------------------3----------------------|
-3---3---3---3---3--------------0-------2------|

------------------------------------------------|
-0---1---0---3--------0-------1-------0-------3-|
-0---2---0---2------0-------0-------0-------2---|
-0---0---2---0----0-------2-------2-------0-----|
------------------------3-----------------------|
-3---3---3---3---3--------------0-------2-------|

Bridge:
-0---0---0---3---2---|
-1---0---1---3---3---|
-2---0---0---0---2---|
-2---2---2---0---0---| 2x
-0---2---3---x---0---|
-----0-------3-------|

Chorus 3:
-3---0---0---2---0---0---3---0---0---3---2---|
-0---1---0---3---0---1---0---0---1---0---3---|
-0---0---0---2---0---0---0---0---0---0---2---|
-0---2---2---0---2---2---0---2---2---0---0---|
-2---3---2---0---2---3---2---2---3---2---0---|
-3-------0-------0-------3---0-------3-------|

Outro:
--------------------------------------------------------------|
-------0-------1-------0-------3--------------<12>------------|
-----0-------0-------0-------2---0-------<12>------<12>-------|
---0-------2-------2-------0--------<12>----------------------|
---------3----------------------------------------------------|
-3---------------0-------2--------8---------------------8-/3~-|
Suggest correction
What's this?
You can suggest a correction to this tab. Community and Mods will review your correction and vote to approve or reject it.
comments
print report bad tab
3 comments total.
0 reply
rstott24 83 wrote on April 27 2013, 05:37 pm

-----------------------------------------------|
-0---1---0---3--------0-------1-------0------3-|
-0---0---0---2------0-------0-------0------2---|
-0---2---2---0----0-------2-------2------0-----|
------------------------3----------------------|
-3---3---3---3---3--------------0-------2------|

In the Chorus, the second chord is a 2 on the D string and open G string rather than the reversal. You can see this clearly in the Boyce Ave YouTube video for this song at 1:47.

+1 reply
rstott24 83 wrote on April 27 2013, 05:51 pm

Chorus 3:
-3---0---0---2---0---0---3---0---0---3---2---|
-0---1---0---3---0---1---0---0---1---0---3---|
-0---0---0---2---0---0---0---0---0---0---2---|
-0---2---2---0---2---2---0---2---2---0---0---|
-2---3---2---0---2---3---2---2---3---2---0---|
-3-------0-------0-------3---0-------3-------|

I think should be:

Chorus 3:
-3---0---0---2---0---0---3---2---0---0---3---2---|
-0---1---0---3---0---1---0---3---0---1---0---3---|
-0---0---0---2---0---0---0---2---0---0---0---2---|
-0---2---2---0---2---2---0---0---2---2---0---0---|
-2---3---2---0---2---3---2---0---2---3---2---0---|
-3-------0-------0-------3-------0-------3-------|

0 reply
rstott24 83 wrote on April 27 2013, 10:49 pm

This is a really good tab! Thanks a lot!

guest
You may want to rate the tab now too:
select rating
Please do not post tabs as comments. Select "correction" instead!