Oops, an error
Loading. Please wait.

Slide Tab

33,310 views 6 this week
no commentswrite comment
1 2 3 4 5
excellent!
x 12
add to favorites
launch autoscroll
font size
0
reset
how to read this tab
guitar tuner
Autoscroll
slow
fast
+/-
esc
set tempo
stop
Help us to improve Ultimate-Guitar.com Take our survey!
×
Contributor
Difficulty
novice
  Another great cover by Boyce Avenue that didnt have a tab for it. So here it is,,, enjoy :)


Band: Boyce Avenue - Slide (Goo Goo Dolls Cover)
Album: Influential Sessions
Year: 2009
Tabbed by: Scott Naylor

Tunning: D A D G D d


Intro

d||--------------------------------------------|
D||-----0--------0----------0--------0----0----|
G||-------0--------0----------0----0-----------| x2
D||---5--------7----------5--------------------|
A||-7--------5-------5--3----------------------|
D||------------------------------5------4------|


Verse

d||-0-0-0-0--0-0-0-0--0-0-0-0-0-0-0-0----|
D||-0-0-0-0--0-0-0-0--0-0-0-0-0-0-0-0----|
G||-0-0-0-0--0-0-0-0--0-0-0-0-0-0-0-0----|
D||-0-0-0-0--7-7-7-7--5-5-5-5-5-5-5-5----|
A||-2-2-2-2--5-5-5-5--3-3-3-3-3-3-3-3----|
D||-2-2-2-2------------------------------|

d||-0-0-0-0--0-0-0-0--0-0-0-0-0-0----|
D||-0-0-0-0--0-0-0-0--0-0-0-0-0-0----|
G||-0-0-0-0--0-0-0-0--0-0-0-0-0-0----|
D||-0-0-0-0--7-7-7-7--5-5-5-5-5-5----|
A||-2-2-2-2--5-5-5-5--3-3-3-3-3-3----|
D||-2-2-2-2--------------------------|


Pre-Chorus

d||-------------0~---|
D||------0------0~---|
G||----0---0----0~---| x2
D||----------0--2~---|
A||-3s5---------3~---|
D||------------------|


Chorus

d||-0-0--0-0--0-0--0-0--0-0--0-0---0--0--0--0--0--0--0--0----|
D||-0-0--0-0--0-0--0-0--0-0--0-0---0--0--0--0--0--0--0--0----|
G||-0-0--0-0--0-0--0-0--0-0--0-0---12-12-11-11-9--9--11-11---|
D||-5-5--0-0--5-5--0-0--3-5--0-0---0--0--0--0--0--0--0--0----|
A||-3-3--5-5--3-3--5-5--5-3--5-5---0--0--0--0--0--0--0--0----|
D||------5-5-------5-5-------5-5-----------------------------|

d||-0-0--0-0--0-0--0-0--0-0--0-0---0--0--0--0--0--0--0--0----|
D||-0-0--0-0--0-0--0-0--0-0--0-0---0--0--0--0--0--0--0--0----|
G||-0-0--0-0--0-0--0-0--0-0--0-0---12-12-11-11s14-14-14-14---|
D||-5-5--0-0--5-5--0-0--3-5--0-0---0--0--0--0--0--0--0--0----|
A||-3-3--5-5--3-3--5-5--5-3--5-5---0--0--0--0--0--0--0--0----|
D||------5-5-------5-5-------5-5-----------------------------|


Verse


Pre-Chorus x2


Chorus


Bridge

d||-0-0-0-0--0-0-0-0--0-0--0-0--0-0--0-0----|
D||-0-0-0-0--0-0-0-0--0-0--0-0--0-0--0-0----|
G||-0-0-0-0--0-0-0-0--0-0--0-0--0-0--0-0----|
D||-0-0-0-0--7-7-7-7--5-5--0-0--5-5--7-7----|
A||-2-2-2-2--5-5-5-5--3-3--5-5--3-3--5-5----|
D||-2-2-2-2----------------5-5--------------|

d||-0-0-0-0--0-0-0-0--0-0-0-0-0-0-0-0----|
D||-0-0-0-0--0-0-0-0--0-0-0-0-0-0-0-0----|
G||-0-0-0-0--0-0-0-0--0-0-0-0-0-0-0-0----|
D||-0-0-0-0--7-7-7-7--5-5-5-5-5-5-5-5----|
A||-2-2-2-2--5-5-5-5--3-3-3-3-3-3-3-3----|
D||-2-2-2-2------------------------------|


Chorus

d||-0-0--0-0--0-0--0-0--0-0--0-0---0--0--0--0--0--0--0--0----|
D||-0-0--0-0--0-0--0-0--0-0--0-0---0--0--0--0--0--0--0--0----|
G||-0-0--0-0--0-0--0-0--0-0--0-0---12-12-11-11-9--9--11-11---|
D||-5-5--0-0--5-5--0-0--3-5--0-0---0--0--0--0--0--0--0--0----|
A||-3-3--5-5--3-3--5-5--5-3--5-5---0--0--0--0--0--0--0--0----|
D||------5-5-------5-5-------5-5-----------------------------|

d||-0-0--0-0--0-0--0-0--0-0--0-0---0--0--0--0--0--0--0--0----|
D||-0-0--0-0--0-0--0-0--0-0--0-0---0--0--0--0--0--0--0--0----|
G||-0-0--0-0--0-0--0-0--0-0--0-0---12-12-11-11h14-14h14-14---|
D||-5-5--0-0--5-5--0-0--3-5--0-0---0--0--0--0--0--0--0--0----|
A||-3-3--5-5--3-3--5-5--5-3--5-5---0--0--0--0--0--0--0--0----|
D||------5-5-------5-5-------5-5-----------------------------|


Bridge

d||-0-0-0-0--0-0-0-0--0-0--0-0--0-0--0-0----|
D||-0-0-0-0--0-0-0-0--0-0--0-0--0-0--0-0----|
G||-0-0-0-0--0-0-0-0--0-0--0-0--0-0--0-0----|
D||-0-0-0-0--7-7-7-7--5-5--0-0--5-5--7-7----|
A||-2-2-2-2--5-5-5-5--3-3--5-5--3-3--5-5----|
D||-2-2-2-2----------------5-5--------------|


d||-0-0-0-0--0-0-0-0--0-0-0-0-0-0----|
D||-0-0-0-0--0-0-0-0--0-0-0-0-0-0----|
G||-0-0-0-0--0-0-0-0--0-0-0-0-0-0----|
D||-0-0-0-0--7-7-7-7--5-5-5-5-5-5----|
A||-2-2-2-2--5-5-5-5--3-3-3-3-3-3----|
D||-2-2-2-2--------------------------|


Pre-Chorus

d||-------------0~--------------------0-0-0-0-0-0-0-0----|
D||------0------0~-------------0------0-0-0-0-0-0-0-0----|
G||----0---0----0~-----------0---0----0-0-0-0-0-0-0-2----|
D||----------0--2~-----------------0--2-2-2-2-2-2-2-0----|
A||-3s5---------3~--------3s5---------3-3-3-3-3-3-3-0----|
D||------------------------------------------------------|


Chorus

d||-0-0--0-0--0-0--0-0--0-0--0-0---0--0--0--0--0--0--0--0----|
D||-0-0--0-0--0-0--0-0--0-0--0-0---0--0--0--0--0--0--0--0----|
G||-0-0--0-0--0-0--0-0--0-0--0-0---12-12-11-11-9--9--11-11---|
D||-5-5--0-0--5-5--0-0--3-5--0-0---0--0--0--0--0--0--0--0----|
A||-3-3--5-5--3-3--5-5--5-3--5-5---0--0--0--0--0--0--0--0----|
D||------5-5-------5-5-------5-5-----------------------------|

d||-0-0--0-0--0-0--0-0--0-0--0-0---0--0--0--0--0--0--0--0----|
D||-0-0--0-0--0-0--0-0--0-0--0-0---0--0--0--0--0--0--0--0----|
G||-0-0--0-0--0-0--0-0--0-0--0-0---12-12-11-11-9--9--11-11---|
D||-5-5--0-0--5-5--0-0--3-5--0-0---0--0--0--0--0--0--0--0----|
A||-3-3--5-5--3-3--5-5--5-3--5-5---0--0--0--0--0--0--0--0----|
D||------5-5-------5-5-------5-5-----------------------------|

d||-0-0--0-0--0-0--0-0--0-0--0-0---0--0--0--0--0--0--0--0----|
D||-0-0--0-0--0-0--0-0--0-0--0-0---0--0--0--0--0--0--0--0----|
G||-0-0--0-0--0-0--0-0--0-0--0-0---12-12-11-11s14-14-14-14---|
D||-5-5--0-0--5-5--0-0--3-5--0-0---0--0--0--0--0--0--0--0----|
A||-3-3--5-5--3-3--5-5--5-3--5-5---0--0--0--0--0--0--0--0----|
D||------5-5-------5-5-------5-5-----------------------------|


Outro

d||--------------------------------------------|
D||-----0--------0----------0--------0----0----|
G||-------0--------0----------0----0-----------|
D||---5--------7----------5--------------------|
A||-7--------5-------5--3----------------------|
D||------------------------------5------4------|

d||------------------------------0~---|
D||-----0--------0----------0----0~---|
G||-------0--------0----------0--0~---|
D||---5--------7----------5------0~---|
A||-7--------5-------5--3--------x----|
D||------------------------------5~---|


   s = Slide
   h = Hammer on
   x = Muffle note
   ~ = Let ring
     
     Feel free to leave me feedback on the tab at scotty_naylor@hotmail.com

     Thanks

comments
print report bad tab
I want to post or [tab]
guest
You may want to rate the tab now too:
select rating
Please do not post tabs as comments. Select "correction" instead!